  0
SECTION
  2
HEADER
  9
$ACADVER
  1
AC1015
  9
$ACADMAINTVER
 70
     6
  9
$DWGCODEPAGE
  3
ANSI_1254
  9
$INSBASE
 10
0.0
 20
0.0
 30
0.0
  9
$EXTMIN
 10
0.0
 20
0.0
 30
0.0
  9
$EXTMAX
 10
279.4
 20
215.9
 30
0.0
  9
$LIMMIN
 10
0.0
 20
0.0
  9
$LIMMAX
 10
279.4
 20
215.9
  9
$ORTHOMODE
 70
     0
  9
$REGENMODE
 70
     1
  9
$FILLMODE
 70
     1
  9
$QTEXTMODE
 70
     0
  9
$MIRRTEXT
 70
     1
  9
$LTSCALE
 40
1.0
  9
$ATTMODE
 70
     1
  9
$TEXTSIZE
 40
3.5
  9
$TRACEWID
 40
1.0
  9
$TEXTSTYLE
  7
Standard
  9
$CLAYER
  8
0
  9
$CELTYPE
  6
ByLayer
  9
$CECOLOR
 62
   256
  9
$CELTSCALE
 40
1.0
  9
$DISPSILH
 70
     0
  9
$DIMSCALE
 40
1.0
  9
$DIMASZ
 40
3.5
  9
$DIMEXO
 40
1.0
  9
$DIMDLI
 40
3.75
  9
$DIMRND
 40
0.0
  9
$DIMDLE
 40
0.0
  9
$DIMEXE
 40
1.0
  9
$DIMTP
 40
0.0
  9
$DIMTM
 40
0.0
  9
$DIMTXT
 40
3.5
  9
$DIMCEN
 40
2.5
  9
$DIMTSZ
 40
0.0
  9
$DIMTOL
 70
     0
  9
$DIMLIM
 70
     0
  9
$DIMTIH
 70
     1
  9
$DIMTOH
 70
     1
  9
$DIMSE1
 70
     0
  9
$DIMSE2
 70
     0
  9
$DIMTAD
 70
     1
  9
$DIMZIN
 70
     0
  9
$DIMBLK
  1

  9
$DIMASO
 70
     1
  9
$DIMSHO
 70
     1
  9
$DIMPOST
  1

  9
$DIMAPOST
  1

  9
$DIMALT
 70
     0
  9
$DIMALTD
 70
     3
  9
$DIMALTF
 40
0.0393700787
  9
$DIMLFAC
 40
1.0
  9
$DIMTOFL
 70
     1
  9
$DIMTVP
 40
0.0
  9
$DIMTIX
 70
     0
  9
$DIMSOXD
 70
     0
  9
$DIMSAH
 70
     0
  9
$DIMBLK1
  1

  9
$DIMBLK2
  1

  9
$DIMSTYLE
  2
ISO-25
  9
$DIMCLRD
 70
     0
  9
$DIMCLRE
 70
     0
  9
$DIMCLRT
 70
     0
  9
$DIMTFAC
 40
1.0
  9
$DIMGAP
 40
1.524
  9
$DIMJUST
 70
     0
  9
$DIMSD1
 70
     0
  9
$DIMSD2
 70
     0
  9
$DIMTOLJ
 70
     0
  9
$DIMTZIN
 70
     0
  9
$DIMALTZ
 70
     0
  9
$DIMALTTZ
 70
     0
  9
$DIMUPT
 70
     0
  9
$DIMDEC
 70
     2
  9
$DIMTDEC
 70
     2
  9
$DIMALTU
 70
     2
  9
$DIMALTTD
 70
     3
  9
$DIMTXSTY
  7
Standard
  9
$DIMAUNIT
 70
     0
  9
$DIMADEC
 70
     2
  9
$DIMALTRND
 40
0.0
  9
$DIMAZIN
 70
     0
  9
$DIMDSEP
 70
    44
  9
$DIMATFIT
 70
     3
  9
$DIMFRAC
 70
     0
  9
$DIMLDRBLK
  1

  9
$DIMLUNIT
 70
     2
  9
$DIMLWD
 70
    -2
  9
$DIMLWE
 70
    -2
  9
$DIMTMOVE
 70
     0
  9
$LUNITS
 70
     2
  9
$LUPREC
 70
     2
  9
$SKETCHINC
 40
1.0
  9
$FILLETRAD
 40
10.0
  9
$AUNITS
 70
     0
  9
$AUPREC
 70
     2
  9
$MENU
  1
.
  9
$ELEVATION
 40
0.0
  9
$PELEVATION
 40
0.0
  9
$THICKNESS
 40
0.0
  9
$LIMCHECK
 70
     0
  9
$CHAMFERA
 40
0.0
  9
$CHAMFERB
 40
0.0
  9
$CHAMFERC
 40
0.0
  9
$CHAMFERD
 40
0.0
  9
$SKPOLY
 70
     0
  9
$TDCREATE
 40
2460346.670792095
  9
$TDUCREATE
 40
2460346.545792095
  9
$TDUPDATE
 40
2460346.670792407
  9
$TDUUPDATE
 40
2460346.545792407
  9
$TDINDWG
 40
0.0000000116
  9
$TDUSRTIMER
 40
0.0000000116
  9
$USRTIMER
 70
     1
  9
$ANGBASE
 50
0.0
  9
$ANGDIR
 70
     0
  9
$PDMODE
 70
     0
  9
$PDSIZE
 40
-1.0
  9
$PLINEWID
 40
0.0
  9
$SPLFRAME
 70
     0
  9
$SPLINETYPE
 70
     6
  9
$SPLINESEGS
 70
     8
  9
$HANDSEED
  5
130
  9
$SURFTAB1
 70
     6
  9
$SURFTAB2
 70
     6
  9
$SURFTYPE
 70
     6
  9
$SURFU
 70
     6
  9
$SURFV
 70
     6
  9
$UCSBASE
  2

  9
$UCSNAME
  2

  9
$UCSORG
 10
0.0
 20
0.0
 30
0.0
  9
$UCSXDIR
 10
1.0
 20
0.0
 30
0.0
  9
$UCSYDIR
 10
0.0
 20
1.0
 30
0.0
  9
$UCSORTHOREF
  2

  9
$UCSORTHOVIEW
 70
     0
  9
$UCSORGTOP
 10
0.0
 20
0.0
 30
0.0
  9
$UCSORGBOTTOM
 10
0.0
 20
0.0
 30
0.0
  9
$UCSORGLEFT
 10
0.0
 20
0.0
 30
0.0
  9
$UCSORGRIGHT
 10
0.0
 20
0.0
 30
0.0
  9
$UCSORGFRONT
 10
0.0
 20
0.0
 30
0.0
  9
$UCSORGBACK
 10
0.0
 20
0.0
 30
0.0
  9
$PUCSBASE
  2

  9
$PUCSNAME
  2

  9
$PUCSORG
 10
0.0
 20
0.0
 30
0.0
  9
$PUCSXDIR
 10
1.0
 20
0.0
 30
0.0
  9
$PUCSYDIR
 10
0.0
 20
1.0
 30
0.0
  9
$PUCSORTHOREF
  2

  9
$PUCSORTHOVIEW
 70
     0
  9
$PUCSORGTOP
 10
0.0
 20
0.0
 30
0.0
  9
$PUCSORGBOTTOM
 10
0.0
 20
0.0
 30
0.0
  9
$PUCSORGLEFT
 10
0.0
 20
0.0
 30
0.0
  9
$PUCSORGRIGHT
 10
0.0
 20
0.0
 30
0.0
  9
$PUCSORGFRONT
 10
0.0
 20
0.0
 30
0.0
  9
$PUCSORGBACK
 10
0.0
 20
0.0
 30
0.0
  9
$USERI1
 70
     0
  9
$USERI2
 70
     0
  9
$USERI3
 70
     0
  9
$USERI4
 70
     0
  9
$USERI5
 70
     0
  9
$USERR1
 40
0.0
  9
$USERR2
 40
0.0
  9
$USERR3
 40
0.0
  9
$USERR4
 40
0.0
  9
$USERR5
 40
0.0
  9
$WORLDVIEW
 70
     1
  9
$SHADEDGE
 70
     3
  9
$SHADEDIF
 70
    70
  9
$TILEMODE
 70
     1
  9
$MAXACTVP
 70
    64
  9
$PINSBASE
 10
0.0
 20
0.0
 30
0.0
  9
$PLIMCHECK
 70
     0
  9
$PEXTMIN
 10
1.0000000000E+20
 20
1.0000000000E+20
 30
1.0000000000E+20
  9
$PEXTMAX
 10
-1.0000000000E+20
 20
-1.0000000000E+20
 30
-1.0000000000E+20
  9
$PLIMMIN
 10
0.0
 20
0.0
  9
$PLIMMAX
 10
420.0
 20
297.0
  9
$UNITMODE
 70
     0
  9
$VISRETAIN
 70
     1
  9
$PLINEGEN
 70
     0
  9
$PSLTSCALE
 70
     1
  9
$TREEDEPTH
 70
  3020
  9
$CMLSTYLE
  2
Standard
  9
$CMLJUST
 70
     0
  9
$CMLSCALE
 40
20.0
  9
$PROXYGRAPHICS
 70
     1
  9
$MEASUREMENT
 70
     1
  9
$CELWEIGHT
370
    -1
  9
$ENDCAPS
280
     0
  9
$JOINSTYLE
280
     0
  9
$LWDISPLAY
290
     1
  9
$INSUNITS
 70
     4
  9
$HYPERLINKBASE
  1

  9
$STYLESHEET
  1

  9
$XEDIT
290
     1
  9
$CEPSNTYPE
380
     0
  9
$PSTYLEMODE
290
     1
  9
$FINGERPRINTGUID
  2
{e79ac834-61f7-4065-b832-1d43ddce1ad8}
  9
$VERSIONGUID
  2
{FAEB1C32-E019-11D5-929B-00C0DF256EC4}
  9
$EXTNAMES
290
     1
  9
$PSVPSCALE
 40
0.0
  9
$OLESTARTUP
290
     0
  0
ENDSEC
  0
SECTION
  2
CLASSES
  0
CLASS
  1
ACDBDICTIONARYWDFLT
  2
AcDbDictionaryWithDefault
  3
ObjectDBX Classes
 90
        0
280
     0
281
     0
  0
CLASS
  1
VISUALSTYLE
  2
AcDbVisualStyle
  3
ObjectDBX Classes
 90
     4095
280
     0
281
     0
  0
CLASS
  1
MATERIAL
  2
AcDbMaterial
  3
ObjectDBX Classes
 90
     1153
280
     0
281
     0
  0
CLASS
  1
SCALE
  2
AcDbScale
  3
ObjectDBX Classes
 90
     1153
280
     0
281
     0
  0
CLASS
  1
TABLESTYLE
  2
AcDbTableStyle
  3
ObjectDBX Classes
 90
     4095
280
     0
281
     0
  0
CLASS
  1
MLEADERSTYLE
  2
AcDbMLeaderStyle
  3
ACDB_MLEADERSTYLE_CLASS
 90
     4095
280
     0
281
     0
  0
CLASS
  1
SUN
  2
AcDbSun
  3
SCENEOE
 90
     1153
280
     0
281
     0
  0
CLASS
  1
ACDBPLACEHOLDER
  2
AcDbPlaceHolder
  3
ObjectDBX Classes
 90
        0
280
     0
281
     0
  0
CLASS
  1
LAYOUT
  2
AcDbLayout
  3
ObjectDBX Classes
 90
        0
280
     0
281
     0
  0
ENDSEC
  0
SECTION
  2
TABLES
  0
TABLE
  2
VPORT
  5
8
330
0
100
AcDbSymbolTable
 70
     1
  0
VPORT
  5
29
330
8
100
AcDbSymbolTableRecord
100
AcDbViewportTableRecord
  2
*Active
 70
     0
 10
0.0
 20
0.0
 11
1.0
 21
1.0
 12
139.7
 22
107.95
 13
0.0
 23
0.0
 14
10.0
 24
10.0
 15
10.0
 25
10.0
 16
0.0
 26
0.0
 36
1.0
 17
0.0
 27
0.0
 37
0.0
 40
215.9
 41
1.2941176471
 42
50.0
 43
0.0
 44
0.0
 50
0.0
 51
0.0
 71
     0
 72
  2000
 73
     1
 74
     3
 75
     0
 76
     0
 77
     0
 78
     0
281
     0
 65
     1
110
0.0
120
0.0
130
0.0
111
1.0
121
0.0
131
0.0
112
0.0
122
1.0
132
0.0
 79
     0
146
0.0
  0
ENDTAB
  0
TABLE
  2
LTYPE
  5
5
330
0
100
AcDbSymbolTable
 70
     6
  0
LTYPE
  5
14
330
5
100
AcDbSymbolTableRecord
100
AcDbLinetypeTableRecord
  2
ByBlock
 70
     0
  3

 72
    65
 73
     0
 40
0.0
  0
LTYPE
  5
15
330
5
100
AcDbSymbolTableRecord
100
AcDbLinetypeTableRecord
  2
ByLayer
 70
     0
  3

 72
    65
 73
     0
 40
0.0
  0
LTYPE
  5
16
330
5
100
AcDbSymbolTableRecord
100
AcDbLinetypeTableRecord
  2
Continuous
 70
     0
  3
Solid line
 72
    65
 73
     0
 40
0.0
  0
LTYPE
  5
6E
330
5
100
AcDbSymbolTableRecord
100
AcDbLinetypeTableRecord
  2
HIDDEN
 70
     0
  3
Hidden __ __ __ __ __ __ __ __ __ __ __ __ __ __
 72
    65
 73
     2
 40
1.905
 49
1.27
 74
     0
 49
-0.635
 74
     0
  0
LTYPE
  5
6F
330
5
100
AcDbSymbolTableRecord
100
AcDbLinetypeTableRecord
  2
PHANTOM
 70
     0
  3
Phantom ______  __  __  ______  __  __  ______
 72
    65
 73
     6
 40
12.7
 49
6.35
 74
     0
 49
-1.27
 74
     0
 49
1.27
 74
     0
 49
-1.27
 74
     0
 49
1.27
 74
     0
 49
-1.27
 74
     0
  0
LTYPE
  5
70
330
5
100
AcDbSymbolTableRecord
100
AcDbLinetypeTableRecord
  2
CENTER
 70
     0
  3
Center ____ _ ____ _ ____ _ ____ _ ____ _ ____
 72
    65
 73
     4
 40
10.16
 49
6.35
 74
     0
 49
-1.27
 74
     0
 49
1.27
 74
     0
 49
-1.27
 74
     0
  0
LTYPE
  5
71
330
5
100
AcDbSymbolTableRecord
100
AcDbLinetypeTableRecord
  2
CENTERX2
 70
     0
  3
Center (2x) ________  __  ________  __  _____
 72
    65
 73
     4
 40
20.32
 49
12.7
 74
     0
 49
-2.54
 74
     0
 49
2.54
 74
     0
 49
-2.54
 74
     0
  0
LTYPE
  5
72
330
5
100
AcDbSymbolTableRecord
100
AcDbLinetypeTableRecord
  2
DOT2
 70
     0
  3
Dot (.5x) ........................................
 72
    65
 73
     2
 40
0.635
 49
0.0
 74
     0
 49
-0.635
 74
     0
  0
ENDTAB
  0
TABLE
  2
LAYER
  5
2
330
0
100
AcDbSymbolTable
 70
    17
  0
LAYER
  5
10
330
2
100
AcDbSymbolTableRecord
100
AcDbLayerTableRecord
  2
0
 70
     0
 62
     7
  6
Continuous
370
    -3
390
F
  0
LAYER
  5
73
330
2
100
AcDbSymbolTableRecord
100
AcDbLayerTableRecord
  2
FORMAT
 70
     0
 62
     7
  6
Continuous
370
    -3
390
F
  0
LAYER
  5
74
330
2
100
AcDbSymbolTableRecord
100
AcDbLayerTableRecord
  2
YARDIMCI_GEOMETRI
 70
     0
 62
    -6
  6
Continuous
290
     0
370
    -3
390
F
  0
LAYER
  5
75
330
2
100
AcDbSymbolTableRecord
100
AcDbLayerTableRecord
  2
SAYFA_CERCEVESI
 70
     0
 62
     7
  6
Continuous
370
    25
390
F
  0
LAYER
  5
76
330
2
100
AcDbSymbolTableRecord
100
AcDbLayerTableRecord
  2
ANTET
 70
     0
 62
     7
  6
Continuous
370
    -3
390
F
  0
LAYER
  5
77
330
2
100
AcDbSymbolTableRecord
100
AcDbLayerTableRecord
  2
OLCU
 70
     0
 62
   150
  6
Continuous
370
    -3
390
F
  0
LAYER
  5
78
330
2
100
AcDbSymbolTableRecord
100
AcDbLayerTableRecord
  2
METIN
 70
     0
 62
    96
  6
Continuous
370
    -3
390
F
  0
LAYER
  5
79
330
2
100
AcDbSymbolTableRecord
100
AcDbLayerTableRecord
  2
BALON
 70
     0
 62
     5
  6
Continuous
370
    -3
390
F
  0
LAYER
  5
7A
330
2
100
AcDbSymbolTableRecord
100
AcDbLayerTableRecord
  2
VURGU
 70
     0
 62
     7
  6
Continuous
370
    -3
390
F
  0
LAYER
  5
7B
330
2
100
AcDbSymbolTableRecord
100
AcDbLayerTableRecord
  2
SILIK
 70
     0
 62
     7
  6
Continuous
370
    -3
390
F
  0
LAYER
  5
7C
330
2
100
AcDbSymbolTableRecord
100
AcDbLayerTableRecord
  2
MODEL
 70
     0
 62
     7
  6
Continuous
370
    -3
390
F
  0
LAYER
  5
7D
330
2
100
AcDbSymbolTableRecord
100
AcDbLayerTableRecord
  2
DETAYLANDıRMA
 70
     0
 62
   190
  6
Continuous
370
    -3
390
F
  0
LAYER
  5
7E
330
2
100
AcDbSymbolTableRecord
100
AcDbLayerTableRecord
  2
TOLERANS
 70
     0
 62
   230
  6
Continuous
370
    -3
390
F
  0
LAYER
  5
7F
330
2
100
AcDbSymbolTableRecord
100
AcDbLayerTableRecord
  2
MERKEZ_CIZGILERI
 70
     0
 62
    30
  6
Continuous
370
    -3
390
F
  0
LAYER
  5
80
330
2
100
AcDbSymbolTableRecord
100
AcDbLayerTableRecord
  2
KESIT-DETAY_CIZGILERI
 70
     0
 62
     7
  6
Continuous
370
    -3
390
F
  0
LAYER
  5
81
330
2
100
AcDbSymbolTableRecord
100
AcDbLayerTableRecord
  2
\U+041E\U+0421\U+0415\U+0412\U+042B\U+0415
 70
     0
 62
     7
  6
Continuous
370
    -3
390
F
  0
LAYER
  5
82
330
2
100
AcDbSymbolTableRecord
100
AcDbLayerTableRecord
  2
\U+0412\U+041E\U+0414\U+042F\U+041D\U+042B\U+0415_\U+0417\U+041D\U+0410\U+041A\U+0418
 70
     0
 62
    11
  6
Continuous
370
    -3
390
F
  0
ENDTAB
  0
TABLE
  2
STYLE
  5
3
330
0
100
AcDbSymbolTable
 70
     1
  0
STYLE
  5
11
330
3
100
AcDbSymbolTableRecord
100
AcDbTextStyleTableRecord
  2
Standard
 70
     0
 40
0.0
 41
1.0
 50
0.0
 71
     0
 42
3.5
  3
txt
  4

  0
ENDTAB
  0
TABLE
  2
VIEW
  5
6
330
0
100
AcDbSymbolTable
 70
     0
  0
ENDTAB
  0
TABLE
  2
UCS
  5
7
330
0
100
AcDbSymbolTable
 70
     0
  0
ENDTAB
  0
TABLE
  2
APPID
  5
9
330
0
100
AcDbSymbolTable
 70
     1
  0
APPID
  5
12
330
9
100
AcDbSymbolTableRecord
100
AcDbRegAppTableRecord
  2
ACAD
 70
     0
  0
ENDTAB
  0
TABLE
  2
DIMSTYLE
  5
A
330
0
100
AcDbSymbolTable
 70
     1
100
AcDbDimStyleTable
  0
DIMSTYLE
105
27
330
A
100
AcDbSymbolTableRecord
100
AcDbDimStyleTableRecord
  2
ISO-25
 70
     0
 41
2.5
 42
0.625
 43
3.75
 44
1.25
 73
     0
 74
     0
 77
     1
 78
     8
140
2.5
141
2.5
143
0.0393700787
147
0.625
171
     3
172
     1
178
     0
271
     2
272
     2
274
     3
278
    44
283
     0
284
     8
340
11
  0
ENDTAB
  0
TABLE
  2
BLOCK_RECORD
  5
1
330
0
100
AcDbSymbolTable
 70
     4
  0
BLOCK_RECORD
  5
1F
330
1
100
AcDbSymbolTableRecord
100
AcDbBlockTableRecord
  2
*Model_Space
340
22
  0
BLOCK_RECORD
  5
1B
330
1
100
AcDbSymbolTableRecord
100
AcDbBlockTableRecord
  2
*Paper_Space
340
1E
  0
BLOCK_RECORD
  5
23
330
1
100
AcDbSymbolTableRecord
100
AcDbBlockTableRecord
  2
*Paper_Space0
340
26
  0
BLOCK_RECORD
  5
8E
330
1
100
AcDbSymbolTableRecord
100
AcDbBlockTableRecord
  2
SW_CENTERMARKSYMBOL_0
340
0
102
{BLKREFS
331
99
102
}
  0
BLOCK_RECORD
  5
C8
330
1
100
AcDbSymbolTableRecord
100
AcDbBlockTableRecord
  2
SW_CENTERMARKSYMBOL_1
340
0
102
{BLKREFS
331
D3
102
}
  0
BLOCK_RECORD
  5
D4
330
1
100
AcDbSymbolTableRecord
100
AcDbBlockTableRecord
  2
SW_CENTERMARKSYMBOL_2
340
0
102
{BLKREFS
331
DF
102
}
  0
ENDTAB
  0
ENDSEC
  0
SECTION
  2
BLOCKS
  0
BLOCK
  5
20
330
1F
100
AcDbEntity
  8
0
100
AcDbBlockBegin
  2
*Model_Space
 70
     0
 10
0.0
 20
0.0
 30
0.0
  3
*Model_Space
  1

  0
ENDBLK
  5
21
330
1F
100
AcDbEntity
  8
0
100
AcDbBlockEnd
  0
BLOCK
  5
1C
330
1B
100
AcDbEntity
 67
     1
  8
0
100
AcDbBlockBegin
  2
*Paper_Space
 70
     0
 10
0.0
 20
0.0
 30
0.0
  3
*Paper_Space
  1

  0
ENDBLK
  5
1D
330
1B
100
AcDbEntity
 67
     1
  8
0
100
AcDbBlockEnd
  0
BLOCK
  5
24
330
23
100
AcDbEntity
  8
0
100
AcDbBlockBegin
  2
*Paper_Space0
 70
     0
 10
0.0
 20
0.0
 30
0.0
  3
*Paper_Space0
  1

  0
ENDBLK
  5
25
330
23
100
AcDbEntity
  8
0
100
AcDbBlockEnd
  0
BLOCK
  5
8F
330
8E
100
AcDbEntity
  8
0
100
AcDbBlockBegin
  2
SW_CENTERMARKSYMBOL_0
 70
     0
 10
0.0
 20
0.0
 30
0.0
  3
SW_CENTERMARKSYMBOL_0
  1

  0
LINE
  5
91
330
8E
100
AcDbEntity
  8
FORMAT
 62
     0
100
AcDbLine
 10
0.0
 20
0.0
 30
0.0
 11
0.0
 21
2.5
 31
0.0
  0
LINE
  5
92
330
8E
100
AcDbEntity
  8
FORMAT
 62
     0
100
AcDbLine
 10
0.0
 20
0.0
 30
0.0
 11
-2.5
 21
0.0
 31
0.0
  0
LINE
  5
93
330
8E
100
AcDbEntity
  8
FORMAT
 62
     0
100
AcDbLine
 10
0.0
 20
0.0
 30
0.0
 11
0.0
 21
-2.5
 31
0.0
  0
LINE
  5
94
330
8E
100
AcDbEntity
  8
FORMAT
 62
     0
100
AcDbLine
 10
0.0
 20
0.0
 30
0.0
 11
2.5
 21
0.0
 31
0.0
  0
LINE
  5
95
330
8E
100
AcDbEntity
  8
FORMAT
 62
     0
100
AcDbLine
 10
0.0
 20
5.0
 30
0.0
 11
0.0
 21
69.5
 31
0.0
  0
LINE
  5
96
330
8E
100
AcDbEntity
  8
FORMAT
 62
     0
100
AcDbLine
 10
-5.0
 20
0.0
 30
0.0
 11
-69.5
 21
0.0
 31
0.0
  0
LINE
  5
97
330
8E
100
AcDbEntity
  8
FORMAT
 62
     0
100
AcDbLine
 10
0.0
 20
-5.0
 30
0.0
 11
0.0
 21
-69.5
 31
0.0
  0
LINE
  5
98
330
8E
100
AcDbEntity
  8
FORMAT
 62
     0
100
AcDbLine
 10
5.0
 20
0.0
 30
0.0
 11
69.5
 21
0.0
 31
0.0
  0
ENDBLK
  5
90
330
8E
100
AcDbEntity
  8
0
100
AcDbBlockEnd
  0
BLOCK
  5
C9
330
C8
100
AcDbEntity
  8
0
100
AcDbBlockBegin
  2
SW_CENTERMARKSYMBOL_1
 70
     0
 10
0.0
 20
0.0
 30
0.0
  3
SW_CENTERMARKSYMBOL_1
  1

  0
LINE
  5
CB
330
C8
100
AcDbEntity
  8
FORMAT
 62
     0
100
AcDbLine
 10
0.0
 20
0.0
 30
0.0
 11
0.0
 21
2.5
 31
0.0
  0
LINE
  5
CC
330
C8
100
AcDbEntity
  8
FORMAT
 62
     0
100
AcDbLine
 10
0.0
 20
0.0
 30
0.0
 11
-2.5
 21
0.0
 31
0.0
  0
LINE
  5
CD
330
C8
100
AcDbEntity
  8
FORMAT
 62
     0
100
AcDbLine
 10
0.0
 20
0.0
 30
0.0
 11
0.0
 21
-2.5
 31
0.0
  0
LINE
  5
CE
330
C8
100
AcDbEntity
  8
FORMAT
 62
     0
100
AcDbLine
 10
0.0
 20
0.0
 30
0.0
 11
2.5
 21
0.0
 31
0.0
  0
LINE
  5
CF
330
C8
100
AcDbEntity
  8
FORMAT
 62
     0
100
AcDbLine
 10
0.0
 20
5.0
 30
0.0
 11
0.0
 21
9.5
 31
0.0
  0
LINE
  5
D0
330
C8
100
AcDbEntity
  8
FORMAT
 62
     0
100
AcDbLine
 10
-5.0
 20
0.0
 30
0.0
 11
-9.5
 21
0.0
 31
0.0
  0
LINE
  5
D1
330
C8
100
AcDbEntity
  8
FORMAT
 62
     0
100
AcDbLine
 10
0.0
 20
-5.0
 30
0.0
 11
0.0
 21
-9.5
 31
0.0
  0
LINE
  5
D2
330
C8
100
AcDbEntity
  8
FORMAT
 62
     0
100
AcDbLine
 10
5.0
 20
0.0
 30
0.0
 11
9.5
 21
0.0
 31
0.0
  0
ENDBLK
  5
CA
330
C8
100
AcDbEntity
  8
0
100
AcDbBlockEnd
  0
BLOCK
  5
D5
330
D4
100
AcDbEntity
  8
0
100
AcDbBlockBegin
  2
SW_CENTERMARKSYMBOL_2
 70
     0
 10
0.0
 20
0.0
 30
0.0
  3
SW_CENTERMARKSYMBOL_2
  1

  0
LINE
  5
D7
330
D4
100
AcDbEntity
  8
FORMAT
 62
     0
100
AcDbLine
 10
0.0
 20
0.0
 30
0.0
 11
0.0
 21
2.5
 31
0.0
  0
LINE
  5
D8
330
D4
100
AcDbEntity
  8
FORMAT
 62
     0
100
AcDbLine
 10
0.0
 20
0.0
 30
0.0
 11
-2.5
 21
0.0
 31
0.0
  0
LINE
  5
D9
330
D4
100
AcDbEntity
  8
FORMAT
 62
     0
100
AcDbLine
 10
0.0
 20
0.0
 30
0.0
 11
0.0
 21
-2.5
 31
0.0
  0
LINE
  5
DA
330
D4
100
AcDbEntity
  8
FORMAT
 62
     0
100
AcDbLine
 10
0.0
 20
0.0
 30
0.0
 11
2.5
 21
0.0
 31
0.0
  0
LINE
  5
DB
330
D4
100
AcDbEntity
  8
FORMAT
 62
     0
100
AcDbLine
 10
0.0
 20
5.0
 30
0.0
 11
0.0
 21
9.5
 31
0.0
  0
LINE
  5
DC
330
D4
100
AcDbEntity
  8
FORMAT
 62
     0
100
AcDbLine
 10
-5.0
 20
0.0
 30
0.0
 11
-9.5
 21
0.0
 31
0.0
  0
LINE
  5
DD
330
D4
100
AcDbEntity
  8
FORMAT
 62
     0
100
AcDbLine
 10
0.0
 20
-5.0
 30
0.0
 11
0.0
 21
-9.5
 31
0.0
  0
LINE
  5
DE
330
D4
100
AcDbEntity
  8
FORMAT
 62
     0
100
AcDbLine
 10
5.0
 20
0.0
 30
0.0
 11
9.5
 21
0.0
 31
0.0
  0
ENDBLK
  5
D6
330
D4
100
AcDbEntity
  8
0
100
AcDbBlockEnd
  0
ENDSEC
  0
SECTION
  2
ENTITIES
  0
LINE
  5
83
330
1F
100
AcDbEntity
  8
0
  6
Continuous
 62
     7
370
    25
100
AcDbLine
 10
129.1701403815
 20
51.0397042838
 30
0.0
 11
129.1701403815
 21
29.6754170122
 31
0.0
  0
LINE
  5
84
330
1F
100
AcDbEntity
  8
0
  6
Continuous
 62
     7
370
    25
100
AcDbLine
 10
143.1701403815
 20
29.6754170122
 30
0.0
 11
143.1701403815
 21
51.0419577492
 31
0.0
  0
LINE
  5
85
330
1F
100
AcDbEntity
  8
0
  6
Continuous
 62
     7
370
    25
100
AcDbLine
 10
129.1701403815
 20
51.0420920164
 30
0.0
 11
129.1701403815
 21
51.0397042838
 31
0.0
  0
LINE
  5
86
330
1F
100
AcDbEntity
  8
0
  6
Continuous
 62
     7
370
    25
100
AcDbLine
 10
143.1701403815
 20
51.0419577492
 30
0.0
 11
143.1701403815
 21
51.0420920164
 31
0.0
  0
CIRCLE
  5
87
330
1F
100
AcDbEntity
  8
0
  6
Continuous
 62
     7
370
    25
100
AcDbCircle
 10
136.1701403815
 20
117.6754170122
 30
0.0
 40
67.0
  0
CIRCLE
  5
88
330
1F
100
AcDbEntity
  8
0
  6
Continuous
 62
     7
370
    25
100
AcDbCircle
 10
136.1701403815
 20
117.6754170122
 30
0.0
 40
55.0
  0
LINE
  5
89
330
1F
100
AcDbEntity
  8
0
  6
Continuous
 62
     7
370
    25
100
AcDbLine
 10
136.1701403815
 20
29.6754170122
 30
0.0
 11
143.1701403815
 21
29.6754170122
 31
0.0
  0
LINE
  5
8A
330
1F
100
AcDbEntity
  8
0
  6
Continuous
 62
     7
370
    25
100
AcDbLine
 10
129.1701403815
 20
29.6754170122
 30
0.0
 11
136.1701403815
 21
29.6754170122
 31
0.0
  0
CIRCLE
  5
8B
330
1F
100
AcDbEntity
  8
0
  6
Continuous
 62
     7
370
    25
100
AcDbCircle
 10
136.1701403815
 20
117.6754170122
 30
0.0
 40
54.1763433953501
  0
CIRCLE
  5
8C
330
1F
100
AcDbEntity
  8
0
  6
Continuous
 62
     7
370
    25
100
AcDbCircle
 10
136.1701403815
 20
117.6754170122
 30
0.0
 40
45.8236566046499
  0
CIRCLE
  5
8D
330
1F
100
AcDbEntity
  8
0
  6
Continuous
 62
     7
370
    25
100
AcDbCircle
 10
136.1701403815
 20
117.6754170122
 30
0.0
 40
45.0
  0
INSERT
  5
99
330
1F
100
AcDbEntity
  8
FORMAT
 62
     7
100
AcDbBlockReference
  2
SW_CENTERMARKSYMBOL_0
 10
136.1701403815
 20
117.6754170122
 30
0.0
  0
LINE
  5
9A
330
1F
100
AcDbEntity
  8
0
  6
Continuous
 62
     7
370
    25
100
AcDbLine
 10
-60.8438531294
 20
184.6754170122
 30
0.0
 11
-142.825403946
 21
184.6754170122
 31
0.0
  0
LINE
  5
9B
330
1F
100
AcDbEntity
  8
0
  6
Continuous
 62
     7
370
    25
100
AcDbLine
 10
-127.8467587308
 20
50.6754170122
 30
0.0
 11
-60.8438531294
 21
50.6754170122
 31
0.0
  0
LINE
  5
9C
330
1F
100
AcDbEntity
  8
0
  6
Continuous
 62
     7
370
    25
100
AcDbLine
 10
-142.825403946
 20
50.6754170122
 30
0.0
 11
-141.825403946
 21
50.6754170122
 31
0.0
  0
ARC
  5
9D
330
1F
100
AcDbEntity
  8
0
  6
Continuous
 62
     7
370
    25
100
AcDbCircle
 10
-60.8438531294
 20
182.6754170122
 30
0.0
 40
2.000000000000005
100
AcDbArc
 50
36.0273733851
 51
90.0
  0
ARC
  5
9E
330
1F
100
AcDbEntity
  8
0
  6
Continuous
 62
     7
370
    25
100
AcDbCircle
 10
-60.8438531294
 20
52.6754170122
 30
0.0
 40
2.000000000000001
100
AcDbArc
 50
270.0
 51
323.9726266149
  0
LINE
  5
9F
330
1F
100
AcDbEntity
  8
0
  6
Continuous
 62
     7
370
    25
100
AcDbLine
 10
-59.2263809608
 20
51.4990736169
 30
0.0
 11
-52.4244269312
 21
60.8517604076
 31
0.0
  0
LINE
  5
A0
330
1F
100
AcDbEntity
  8
0
  6
Continuous
 62
     7
370
    25
100
AcDbLine
 10
-52.4244269312
 20
174.4990736169
 30
0.0
 11
-59.2263809608
 21
183.8517604076
 31
0.0
  0
ARC
  5
A1
330
1F
100
AcDbEntity
  8
0
  6
Continuous
 62
     7
370
    25
100
AcDbCircle
 10
-50.8069547626
 20
175.6754170122
 30
0.0
 40
1.999999999999988
100
AcDbArc
 50
216.0273733851
 51
270.0
  0
ARC
  5
A2
330
1F
100
AcDbEntity
  8
0
  6
Continuous
 62
     7
370
    25
100
AcDbCircle
 10
-50.8069547626
 20
59.6754170122
 30
0.0
 40
2.000000000000001
100
AcDbArc
 50
90.0
 51
143.9726266149
  0
LINE
  5
A3
330
1F
100
AcDbEntity
  8
0
  6
Continuous
 62
     7
370
    25
100
AcDbLine
 10
17.174596054
 20
173.6754170122
 30
0.0
 11
-50.8069547626
 21
173.6754170122
 31
0.0
  0
LINE
  5
A4
330
1F
100
AcDbEntity
  8
0
  6
Continuous
 62
     7
370
    25
100
AcDbLine
 10
16.1537834487
 20
61.6754170122
 30
0.0
 11
17.174596054
 21
61.6754170122
 31
0.0
  0
LINE
  5
A5
330
1F
100
AcDbEntity
  8
0
  6
Continuous
 62
     7
370
    25
100
AcDbLine
 10
-50.8069547626
 20
61.6754170122
 30
0.0
 11
2.174596054
 21
61.6754170122
 31
0.0
  0
LINE
  5
A6
330
1F
100
AcDbEntity
  8
0
  6
Continuous
 62
     7
370
    25
100
AcDbLine
 10
2.174596054
 20
61.6754170122
 30
0.0
 11
2.174596054
 21
47.6754170122
 31
0.0
  0
LINE
  5
A7
330
1F
100
AcDbEntity
  8
0
  6
Continuous
 62
     7
370
    25
100
AcDbLine
 10
16.174596054
 20
47.6754170122
 30
0.0
 11
16.174596054
 21
61.6780101541
 31
0.0
  0
LINE
  5
A8
330
1F
100
AcDbEntity
  8
0
  6
Continuous
 62
     7
370
    25
100
AcDbLine
 10
-141.825403946
 20
50.6754170122
 30
0.0
 11
-141.825403946
 21
29.6754170122
 31
0.0
  0
LINE
  5
A9
330
1F
100
AcDbEntity
  8
0
  6
Continuous
 62
     7
370
    25
100
AcDbLine
 10
-127.825403946
 20
29.6754170122
 30
0.0
 11
-127.825403946
 21
50.6776413655
 31
0.0
  0
LINE
  5
AA
330
1F
100
AcDbEntity
  8
0
  6
Continuous
 62
     7
370
    25
100
AcDbLine
 10
-142.825403946
 20
184.6754170122
 30
0.0
 11
-142.825403946
 21
50.6754170122
 31
0.0
  0
SPLINE
  5
AB
330
1F
100
AcDbEntity
  8
0
  6
Continuous
 62
     7
370
    25
100
AcDbSpline
210
0.0
220
0.0
230
1.0
 70
     8
 71
     3
 72
    26
 73
    22
 74
     0
 42
0.00000001
 43
0.00000001
 40
0.0
 40
0.0
 40
0.0
 40
0.0
 40
0.0175732353952624
 40
0.0718465539380861
 40
0.1244728557138111
 40
0.178614810126993
 40
0.2314354374239905
 40
0.2857758164090252
 40
0.3387962482711713
 40
0.3933595194538581
 40
0.4462727825087475
 40
0.5007351869548504
 40
0.5533992648921375
 40
0.6075916826268387
 40
0.6602542828882533
 40
0.7144301792020846
 40
0.7673400846750856
 40
0.8217770677378873
 40
0.8747984873595136
 40
0.9293683204275086
 40
1.0
 40
1.0
 40
1.0
 40
1.0
 10
-127.8467587308134
 20
50.67764305229888
 30
0.0
 10
-127.84087323912
 20
50.67702965925072
 30
0.0
 10
-127.8168109485466
 20
50.67452185828361
 30
0.0
 10
-127.9766153225255
 20
50.69121959150768
 30
0.0
 10
-128.3256482150093
 20
50.7263001398682
 30
0.0
 10
-128.8666397426261
 20
50.77716334073022
 30
0.0
 10
-129.5778164615703
 20
50.8372956184678
 30
0.0
 10
-130.432869848506
 20
50.89959975309355
 30
0.0
 10
-131.4219062418185
 20
50.95790909391691
 30
0.0
 10
-132.4995999034151
 20
51.00465369221367
 30
0.0
 10
-133.6533845070741
 20
51.03520695730215
 30
0.0
 10
-134.8276413842074
 20
51.04560084077758
 30
0.0
 10
-136.0105816176907
 20
51.03494382521104
 30
0.0
 10
-137.1473286142477
 20
51.00474294447115
 30
0.0
 10
-138.2281970533883
 20
50.95792229660055
 30
0.0
 10
-139.2053175851995
 20
50.90040917144531
 30
0.0
 10
-140.0682766915602
 20
50.83769933913469
 30
0.0
 10
-140.7787857580823
 20
50.77762286708984
 30
0.0
 10
-141.3223483985499
 20
50.72663215509903
 30
0.0
 10
-141.7343311012367
 20
50.68505653058747
 30
0.0
 10
-141.7925564602845
 20
50.6788937230222
 30
0.0
 10
-141.8254039460419
 20
50.67541701223782
 30
0.0
  0
LINE
  5
AC
330
1F
100
AcDbEntity
  8
0
  6
Continuous
 62
     7
370
    25
100
AcDbLine
 10
17.174596054
 20
173.6754170122
 30
0.0
 11
17.174596054
 21
61.6754170122
 31
0.0
  0
SPLINE
  5
AD
330
1F
100
AcDbEntity
  8
0
  6
Continuous
 62
     7
370
    25
100
AcDbSpline
210
0.0
220
0.0
230
1.0
 70
     8
 71
     3
 72
    26
 73
    22
 74
     0
 42
0.00000001
 43
0.00000001
 40
0.0
 40
0.0
 40
0.0
 40
0.0
 40
0.0167751910503406
 40
0.0709697923460694
 40
0.1234665310610372
 40
0.1774709159747534
 40
0.2302415272799659
 40
0.2845251519389869
 40
0.3375845548691749
 40
0.3921898702484869
 40
0.4451012365317282
 40
0.4995681725365245
 40
0.5521208597332027
 40
0.6061994501957952
 40
0.6587443073280408
 40
0.7127931966489548
 40
0.7656907301042811
 40
0.8201115123242383
 40
0.8731746884103874
 40
0.9277919016922115
 40
1.0
 40
1.0
 40
1.0
 40
1.0
 10
16.15378344872179
 20
61.6780124645514
 30
0.0
 10
16.15962337673464
 20
61.6772843127919
 30
0.0
 10
16.18433000911482
 20
61.67420376491538
 30
0.0
 10
16.0273667630301
 20
61.69383073967087
 30
0.0
 10
15.68254604899975
 20
61.73533827312075
 30
0.0
 10
15.14606632408209
 20
61.79581101384463
 30
0.0
 10
14.43961864753636
 20
61.86752696956955
 30
0.0
 10
13.58833823043631
 20
61.94213069126715
 30
0.0
 10
12.60200780557663
 20
62.01222633455157
 30
0.0
 10
11.52570236796226
 20
62.06867280083186
 30
0.0
 10
10.37255739783768
 20
62.10582554742408
 30
0.0
 10
9.199123039513049
 20
62.11883665918314
 30
0.0
 10
8.017092369726642
 20
62.10664004052974
 30
0.0
 10
6.881405538317884
 20
62.07103890029813
 30
0.0
 10
5.800837901715275
 20
62.01548849751548
 30
0.0
 10
4.822351619665821
 20
61.94697583890508
 30
0.0
 10
3.956307581406457
 20
61.87199704203099
 30
0.0
 10
3.240982281537984
 20
61.79985769880044
 30
0.0
 10
2.691701973023833
 20
61.73834795101908
 30
0.0
 10
2.26920014323604
 20
61.68740380353798
 30
0.0
 10
2.208917836328303
 20
61.67976574647817
 30
0.0
 10
2.174596053958089
 20
61.67541701223782
 30
0.0
  0
LINE
  5
AE
330
1F
100
AcDbEntity
  8
0
  6
Continuous
 62
     7
370
    25
100
AcDbLine
 10
2.174596054
 20
47.6754170122
 30
0.0
 11
16.174596054
 21
47.6754170122
 31
0.0
  0
LINE
  5
AF
330
1F
100
AcDbEntity
  8
0
  6
Continuous
 62
     7
370
    25
100
AcDbLine
 10
-141.825403946
 20
29.6754170122
 30
0.0
 11
-127.825403946
 21
29.6754170122
 31
0.0
  0
LINE
  5
B0
330
1F
100
AcDbEntity
  8
0
  6
Continuous
 62
     1
370
    25
100
AcDbLine
 10
-60.8438531294
 20
184.6754170122
 30
0.0
 11
-60.8438531294
 21
50.6754170122
 31
0.0
  0
LINE
  5
B1
330
1F
100
AcDbEntity
  8
0
  6
Continuous
 62
     1
370
    25
100
AcDbLine
 10
-59.2263809608
 20
183.8517604076
 30
0.0
 11
-59.2263809608
 21
51.4990736169
 31
0.0
  0
LINE
  5
B2
330
1F
100
AcDbEntity
  8
0
  6
Continuous
 62
     1
370
    25
100
AcDbLine
 10
-52.4244269312
 20
174.4990736169
 30
0.0
 11
-52.4244269312
 21
60.8517604076
 31
0.0
  0
LINE
  5
B3
330
1F
100
AcDbEntity
  8
0
  6
Continuous
 62
     1
370
    25
100
AcDbLine
 10
-50.8069547626
 20
173.6754170122
 30
0.0
 11
-50.8069547626
 21
61.6754170122
 31
0.0
  0
LINE
  5
B4
330
1F
100
AcDbEntity
  8
0
  6
Continuous
 62
     7
370
    25
100
AcDbLine
 10
203.1701403815
 20
300.4417870569
 30
0.0
 11
203.1701403815
 21
382.4233378735
 31
0.0
  0
LINE
  5
B5
330
1F
100
AcDbEntity
  8
0
  6
Continuous
 62
     7
370
    25
100
AcDbLine
 10
69.1701403815
 20
382.4233378735
 30
0.0
 11
69.1701403815
 21
300.4417870569
 31
0.0
  0
ARC
  5
B6
330
1F
100
AcDbEntity
  8
0
  6
Continuous
 62
     7
370
    25
100
AcDbCircle
 10
201.1701403815
 20
300.4417870569
 30
0.0
 40
2.0
100
AcDbArc
 50
306.0273733851
 51
0.0
  0
ARC
  5
B7
330
1F
100
AcDbEntity
  8
0
  6
Continuous
 62
     7
370
    25
100
AcDbCircle
 10
71.1701403815
 20
300.4417870569
 30
0.0
 40
2.0
100
AcDbArc
 50
180.0
 51
233.9726266149
  0
LINE
  5
B8
330
1F
100
AcDbEntity
  8
0
  6
Continuous
 62
     7
370
    25
100
AcDbLine
 10
69.9937969861
 20
298.8243148883
 30
0.0
 11
79.3464837768
 21
292.0223608587
 31
0.0
  0
LINE
  5
B9
330
1F
100
AcDbEntity
  8
0
  6
Continuous
 62
     7
370
    25
100
AcDbLine
 10
192.9937969861
 20
292.0223608587
 30
0.0
 11
202.3464837768
 21
298.8243148883
 31
0.0
  0
ARC
  5
BA
330
1F
100
AcDbEntity
  8
0
  6
Continuous
 62
     7
370
    25
100
AcDbCircle
 10
194.1701403815
 20
290.4048886901
 30
0.0
 40
2.000000000000034
100
AcDbArc
 50
126.0273733851
 51
180.0
  0
ARC
  5
BB
330
1F
100
AcDbEntity
  8
0
  6
Continuous
 62
     7
370
    25
100
AcDbCircle
 10
78.1701403815
 20
290.4048886901
 30
0.0
 40
2.000000000000034
100
AcDbArc
 50
0.0
 51
53.9726266149
  0
LINE
  5
BC
330
1F
100
AcDbEntity
  8
0
  6
Continuous
 62
     7
370
    25
100
AcDbLine
 10
192.1701403815
 20
222.4233378735
 30
0.0
 11
192.1701403815
 21
290.4048886901
 31
0.0
  0
LINE
  5
BD
330
1F
100
AcDbEntity
  8
0
  6
Continuous
 62
     7
370
    25
100
AcDbLine
 10
80.1701403815
 20
290.4048886901
 30
0.0
 11
80.1701403815
 21
222.4233378735
 31
0.0
  0
CIRCLE
  5
BE
330
1F
100
AcDbEntity
  8
0
  6
Continuous
 62
     7
370
    25
100
AcDbCircle
 10
136.1701403815
 20
374.4233378735
 30
0.0
 40
7.0
  0
CIRCLE
  5
BF
330
1F
100
AcDbEntity
  8
0
  6
Continuous
 62
     7
370
    25
100
AcDbCircle
 10
136.1701403815
 20
374.4233378735
 30
0.0
 40
5.0
  0
CIRCLE
  5
C0
330
1F
100
AcDbEntity
  8
0
  6
Continuous
 62
     7
370
    25
100
AcDbCircle
 10
136.1701403815
 20
230.4233378735
 30
0.0
 40
7.000000000000028
  0
CIRCLE
  5
C1
330
1F
100
AcDbEntity
  8
0
  6
Continuous
 62
     7
370
    25
100
AcDbCircle
 10
136.1701403815
 20
230.4233378735
 30
0.0
 40
5.000000000000028
  0
LINE
  5
C2
330
1F
100
AcDbEntity
  8
0
  6
Continuous
 62
     7
370
    25
100
AcDbLine
 10
203.1701403815
 20
382.4233378735
 30
0.0
 11
69.1701403815
 21
382.4233378735
 31
0.0
  0
LINE
  5
C3
330
1F
100
AcDbEntity
  8
0
  6
Continuous
 62
     7
370
    25
100
AcDbLine
 10
192.1701403815
 20
222.4233378735
 30
0.0
 11
80.1701403815
 21
222.4233378735
 31
0.0
  0
LINE
  5
C4
330
1F
100
AcDbEntity
  8
0
  6
Continuous
 62
     1
370
    25
100
AcDbLine
 10
203.1701403815
 20
300.4417870569
 30
0.0
 11
69.1701403815
 21
300.4417870569
 31
0.0
  0
LINE
  5
C5
330
1F
100
AcDbEntity
  8
0
  6
Continuous
 62
     1
370
    25
100
AcDbLine
 10
202.3464837768
 20
298.8243148883
 30
0.0
 11
69.9937969861
 21
298.8243148883
 31
0.0
  0
LINE
  5
C6
330
1F
100
AcDbEntity
  8
0
  6
Continuous
 62
     1
370
    25
100
AcDbLine
 10
192.9937969861
 20
292.0223608587
 30
0.0
 11
79.3464837768
 21
292.0223608587
 31
0.0
  0
LINE
  5
C7
330
1F
100
AcDbEntity
  8
0
  6
Continuous
 62
     1
370
    25
100
AcDbLine
 10
192.1701403815
 20
290.4048886901
 30
0.0
 11
80.1701403815
 21
290.4048886901
 31
0.0
  0
INSERT
  5
D3
330
1F
100
AcDbEntity
  8
FORMAT
 62
     7
100
AcDbBlockReference
  2
SW_CENTERMARKSYMBOL_1
 10
136.1701403815
 20
230.4233378735
 30
0.0
  0
INSERT
  5
DF
330
1F
100
AcDbEntity
  8
FORMAT
 62
     7
100
AcDbBlockReference
  2
SW_CENTERMARKSYMBOL_2
 10
136.1701403815
 20
374.4233378735
 30
0.0
  0
LINE
  5
E0
330
1F
100
AcDbEntity
  8
0
  6
Continuous
 62
     7
370
    25
100
AcDbLine
 10
394.2871211911
 20
50.6754170122
 30
0.0
 11
395.2871211911
 21
50.6754170122
 31
0.0
  0
LINE
  5
E1
330
1F
100
AcDbEntity
  8
0
  6
Continuous
 62
     7
370
    25
100
AcDbLine
 10
313.3055703745
 20
50.6754170122
 30
0.0
 11
380.3084759759
 21
50.6754170122
 31
0.0
  0
LINE
  5
E2
330
1F
100
AcDbEntity
  8
0
  6
Continuous
 62
     7
370
    25
100
AcDbLine
 10
395.2871211911
 20
184.6754170122
 30
0.0
 11
313.3055703745
 21
184.6754170122
 31
0.0
  0
ARC
  5
E3
330
1F
100
AcDbEntity
  8
0
  6
Continuous
 62
     7
370
    25
100
AcDbCircle
 10
313.3055703745
 20
52.6754170122
 30
0.0
 40
2.000000000000029
100
AcDbArc
 50
216.0273733851
 51
270.0
  0
ARC
  5
E4
330
1F
100
AcDbEntity
  8
0
  6
Continuous
 62
     7
370
    25
100
AcDbCircle
 10
313.3055703745
 20
182.6754170122
 30
0.0
 40
2.000000000000017
100
AcDbArc
 50
90.0
 51
143.9726266149
  0
LINE
  5
E5
330
1F
100
AcDbEntity
  8
0
  6
Continuous
 62
     7
370
    25
100
AcDbLine
 10
311.6880982059
 20
183.8517604076
 30
0.0
 11
304.8861441763
 21
174.4990736169
 31
0.0
  0
LINE
  5
E6
330
1F
100
AcDbEntity
  8
0
  6
Continuous
 62
     7
370
    25
100
AcDbLine
 10
304.8861441763
 20
60.8517604076
 30
0.0
 11
311.6880982059
 21
51.4990736169
 31
0.0
  0
ARC
  5
E7
330
1F
100
AcDbEntity
  8
0
  6
Continuous
 62
     7
370
    25
100
AcDbCircle
 10
303.2686720077
 20
59.6754170122
 30
0.0
 40
2.0
100
AcDbArc
 50
36.0273733851
 51
90.0
  0
ARC
  5
E8
330
1F
100
AcDbEntity
  8
0
  6
Continuous
 62
     7
370
    25
100
AcDbCircle
 10
303.2686720077
 20
175.6754170122
 30
0.0
 40
2.0
100
AcDbArc
 50
270.0
 51
323.9726266149
  0
LINE
  5
E9
330
1F
100
AcDbEntity
  8
0
  6
Continuous
 62
     7
370
    25
100
AcDbLine
 10
250.2871211911
 20
61.6754170122
 30
0.0
 11
303.2686720077
 21
61.6754170122
 31
0.0
  0
LINE
  5
EA
330
1F
100
AcDbEntity
  8
0
  6
Continuous
 62
     7
370
    25
100
AcDbLine
 10
235.2871211911
 20
61.6754170122
 30
0.0
 11
236.3079337964
 21
61.6754170122
 31
0.0
  0
LINE
  5
EB
330
1F
100
AcDbEntity
  8
0
  6
Continuous
 62
     7
370
    25
100
AcDbLine
 10
303.2686720077
 20
173.6754170122
 30
0.0
 11
235.2871211911
 21
173.6754170122
 31
0.0
  0
LINE
  5
EC
330
1F
100
AcDbEntity
  8
0
  6
Continuous
 62
     7
370
    25
100
AcDbLine
 10
236.2871211911
 20
61.6780101541
 30
0.0
 11
236.2871211911
 21
47.6754170122
 31
0.0
  0
LINE
  5
ED
330
1F
100
AcDbEntity
  8
0
  6
Continuous
 62
     7
370
    25
100
AcDbLine
 10
250.2871211911
 20
47.6754170122
 30
0.0
 11
250.2871211911
 21
61.6754170122
 31
0.0
  0
LINE
  5
EE
330
1F
100
AcDbEntity
  8
0
  6
Continuous
 62
     7
370
    25
100
AcDbLine
 10
380.2871211911
 20
50.6776413655
 30
0.0
 11
380.2871211911
 21
29.6754170122
 31
0.0
  0
LINE
  5
EF
330
1F
100
AcDbEntity
  8
0
  6
Continuous
 62
     7
370
    25
100
AcDbLine
 10
394.2871211911
 20
29.6754170122
 30
0.0
 11
394.2871211911
 21
50.6754170122
 31
0.0
  0
LINE
  5
F0
330
1F
100
AcDbEntity
  8
0
  6
Continuous
 62
     7
370
    25
100
AcDbLine
 10
395.2871211911
 20
117.6754170122
 30
0.0
 11
395.2871211911
 21
184.6754170122
 31
0.0
  0
LINE
  5
F1
330
1F
100
AcDbEntity
  8
0
  6
Continuous
 62
     7
370
    25
100
AcDbLine
 10
395.2871211911
 20
50.6754170122
 30
0.0
 11
395.2871211911
 21
117.6754170122
 31
0.0
  0
SPLINE
  5
F2
330
1F
100
AcDbEntity
  8
0
  6
Continuous
 62
     7
370
    25
100
AcDbSpline
210
0.0
220
0.0
230
1.0
 70
     8
 71
     3
 72
    26
 73
    22
 74
     0
 42
0.00000001
 43
0.00000001
 40
0.0
 40
0.0
 40
0.0
 40
0.0
 40
0.0527291512655988
 40
0.1069925193370781
 40
0.1597202304761494
 40
0.2139672852678701
 40
0.2668734155052667
 40
0.3213063559855244
 40
0.3743269044501951
 40
0.4288957670915814
 40
0.4817196199485347
 40
0.5360876247685507
 40
0.5887104320072368
 40
0.6428539849523007
 40
0.6955849851827807
 40
0.7498307778239522
 40
0.8028099608948432
 40
0.857324397533691
 40
0.9103057295735558
 40
0.964837549373057
 40
1.0
 40
1.0
 40
1.0
 40
1.0
 10
394.2871211911273
 20
50.67541701223781
 30
0.0
 10
394.2685378108691
 20
50.67737157896843
 30
0.0
 10
394.2308303450005
 20
50.68133758285246
 30
0.0
 10
393.9275394993575
 20
50.71240644047371
 30
0.0
 10
393.4479313013034
 20
50.75866399157847
 30
0.0
 10
392.7958140077158
 20
50.8161124666755
 30
0.0
 10
391.9819213181831
 20
50.87882147592727
 30
0.0
 10
391.0410317602623
 20
50.93894273205712
 30
0.0
 10
389.9833677506867
 20
50.99056298102145
 30
0.0
 10
388.8587776164556
 20
51.02690850347214
 30
0.0
 10
387.6800572427095
 20
51.04443452930197
 30
0.0
 10
386.5037636603783
 20
51.04094065864643
 30
0.0
 10
385.3408142985147
 20
51.01688715301265
 30
0.0
 10
384.2440683546793
 20
50.97545725976667
 30
0.0
 10
383.223129427335
 20
50.92058886377323
 30
0.0
 10
382.3232671916313
 20
50.85918343443085
 30
0.0
 10
381.5553066166679
 20
50.79719306103954
 30
0.0
 10
380.9528360133001
 20
50.74232144099567
 30
0.0
 10
380.5331674495865
 20
50.70094714751411
 30
0.0
 10
380.3080039076937
 20
50.67760641909958
 30
0.0
 10
380.3083430309134
 20
50.67763273556901
 30
0.0
 10
380.3084759758988
 20
50.67764305229887
 30
0.0
  0
LINE
  5
F3
330
1F
100
AcDbEntity
  8
0
  6
Continuous
 62
     7
370
    25
100
AcDbLine
 10
235.2871211911
 20
117.6754170122
 30
0.0
 11
235.2871211911
 21
173.6754170122
 31
0.0
  0
LINE
  5
F4
330
1F
100
AcDbEntity
  8
0
  6
Continuous
 62
     7
370
    25
100
AcDbLine
 10
235.2871211911
 20
61.6754170122
 30
0.0
 11
235.2871211911
 21
117.6754170122
 31
0.0
  0
SPLINE
  5
F5
330
1F
100
AcDbEntity
  8
0
  6
Continuous
 62
     7
370
    25
100
AcDbSpline
210
0.0
220
0.0
230
1.0
 70
     8
 71
     3
 72
    26
 73
    22
 74
     0
 42
0.00000001
 43
0.00000001
 40
0.0
 40
0.0
 40
0.0
 40
0.0
 40
0.0526440540003041
 40
0.1068220198823994
 40
0.1594640266463348
 40
0.2136187974364831
 40
0.2665147475320787
 40
0.3209339111585121
 40
0.3739954013434981
 40
0.42861099404257
 40
0.4813916998215958
 40
0.5357207326154987
 40
0.5882120372061916
 40
0.642218079913615
 40
0.6948626570712815
 40
0.7490133401211116
 40
0.8020138320898048
 40
0.8565495430930088
 40
0.9095558637606863
 40
0.9641194295976907
 40
1.0
 40
1.0
 40
1.0
 40
1.0
 10
250.2871211911273
 20
61.6754170122378
 30
0.0
 10
250.2685859092664
 20
61.6777493429593
 30
0.0
 10
250.2309752752627
 20
61.68248196250079
 30
0.0
 10
249.9285069997779
 20
61.71955819307523
 30
0.0
 10
249.4503299833926
 20
61.77476911320399
 30
0.0
 10
248.8000024705674
 20
61.84339884055505
 30
0.0
 10
247.9879028637874
 20
61.91841962217202
 30
0.0
 10
247.0480279526994
 20
61.99049479181519
 30
0.0
 10
245.9906493659931
 20
62.05249816478371
 30
0.0
 10
244.8660027537798
 20
62.09622550033722
 30
0.0
 10
243.6874026752221
 20
62.11739207991719
 30
0.0
 10
242.5122737196527
 20
62.113368031646
 30
0.0
 10
241.3510087866378
 20
62.08475349165432
 30
0.0
 10
240.2559829780255
 20
62.03538164751292
 30
0.0
 10
239.2360129368921
 20
61.96991209672496
 30
0.0
 10
238.335535595769
 20
61.89650318849212
 30
0.0
 10
237.5657187342462
 20
61.822244024779
 30
0.0
 10
236.9605582066215
 20
61.75636086702136
 30
0.0
 10
236.5377431727584
 20
61.7065208133171
 30
0.0
 10
236.3093955367518
 20
61.67821125630537
 30
0.0
 10
236.308348981012
 20
61.67806892826079
 30
0.0
 10
236.3079337963636
 20
61.67801246455139
 30
0.0
  0
LINE
  5
F6
330
1F
100
AcDbEntity
  8
0
  6
Continuous
 62
     7
370
    25
100
AcDbLine
 10
236.2871211911
 20
47.6754170122
 30
0.0
 11
250.2871211911
 21
47.6754170122
 31
0.0
  0
LINE
  5
F7
330
1F
100
AcDbEntity
  8
0
  6
Continuous
 62
     7
370
    25
100
AcDbLine
 10
380.2871211911
 20
29.6754170122
 30
0.0
 11
394.2871211911
 21
29.6754170122
 31
0.0
  0
LINE
  5
F8
330
1F
100
AcDbEntity
  8
0
  6
Continuous
 62
     1
370
    25
100
AcDbLine
 10
313.3055703745
 20
117.6754170122
 30
0.0
 11
313.3055703745
 21
184.6754170122
 31
0.0
  0
LINE
  5
F9
330
1F
100
AcDbEntity
  8
0
  6
Continuous
 62
     1
370
    25
100
AcDbLine
 10
313.3055703745
 20
50.6754170122
 30
0.0
 11
313.3055703745
 21
117.6754170122
 31
0.0
  0
LINE
  5
FA
330
1F
100
AcDbEntity
  8
0
  6
Continuous
 62
     1
370
    25
100
AcDbLine
 10
311.6880982059
 20
117.6754170122
 30
0.0
 11
311.6880982059
 21
183.8517604076
 31
0.0
  0
LINE
  5
FB
330
1F
100
AcDbEntity
  8
0
  6
Continuous
 62
     1
370
    25
100
AcDbLine
 10
311.6880982059
 20
51.4990736169
 30
0.0
 11
311.6880982059
 21
117.6754170122
 31
0.0
  0
LINE
  5
FC
330
1F
100
AcDbEntity
  8
0
  6
Continuous
 62
     1
370
    25
100
AcDbLine
 10
304.8861441763
 20
117.6754170122
 30
0.0
 11
304.8861441763
 21
174.4990736169
 31
0.0
  0
LINE
  5
FD
330
1F
100
AcDbEntity
  8
0
  6
Continuous
 62
     1
370
    25
100
AcDbLine
 10
304.8861441763
 20
60.8517604076
 30
0.0
 11
304.8861441763
 21
117.6754170122
 31
0.0
  0
LINE
  5
FE
330
1F
100
AcDbEntity
  8
0
  6
Continuous
 62
     1
370
    25
100
AcDbLine
 10
303.2686720077
 20
117.6754170122
 30
0.0
 11
303.2686720077
 21
173.6754170122
 31
0.0
  0
LINE
  5
FF
330
1F
100
AcDbEntity
  8
0
  6
Continuous
 62
     1
370
    25
100
AcDbLine
 10
303.2686720077
 20
61.6754170122
 30
0.0
 11
303.2686720077
 21
117.6754170122
 31
0.0
  0
LINE
  5
100
330
1F
100
AcDbEntity
  8
0
  6
Continuous
 62
     7
370
    25
100
AcDbLine
 10
69.1701403815
 20
-51.7771112175
 30
0.0
 11
69.1701403815
 21
-133.7586620341
 31
0.0
  0
LINE
  5
101
330
1F
100
AcDbEntity
  8
0
  6
Continuous
 62
     7
370
    25
100
AcDbLine
 10
203.1701403815
 20
-133.7586620341
 30
0.0
 11
203.1701403815
 21
-51.7771112175
 31
0.0
  0
ARC
  5
102
330
1F
100
AcDbEntity
  8
0
  6
Continuous
 62
     7
370
    25
100
AcDbCircle
 10
71.1701403815
 20
-51.7771112175
 30
0.0
 40
2.000000000000005
100
AcDbArc
 50
126.0273733851
 51
180.0
  0
ARC
  5
103
330
1F
100
AcDbEntity
  8
0
  6
Continuous
 62
     7
370
    25
100
AcDbCircle
 10
201.1701403815
 20
-51.7771112175
 30
0.0
 40
2.0
100
AcDbArc
 50
0.0
 51
53.9726266149
  0
LINE
  5
104
330
1F
100
AcDbEntity
  8
0
  6
Continuous
 62
     7
370
    25
100
AcDbLine
 10
202.3464837768
 20
-50.1596390489
 30
0.0
 11
192.9937969861
 21
-43.3576850193
 31
0.0
  0
LINE
  5
105
330
1F
100
AcDbEntity
  8
0
  6
Continuous
 62
     7
370
    25
100
AcDbLine
 10
79.3464837768
 20
-43.3576850193
 30
0.0
 11
69.9937969861
 21
-50.1596390489
 31
0.0
  0
ARC
  5
106
330
1F
100
AcDbEntity
  8
0
  6
Continuous
 62
     7
370
    25
100
AcDbCircle
 10
78.1701403815
 20
-41.7402128507
 30
0.0
 40
1.999999999999999
100
AcDbArc
 50
306.0273733851
 51
0.0
  0
ARC
  5
107
330
1F
100
AcDbEntity
  8
0
  6
Continuous
 62
     7
370
    25
100
AcDbCircle
 10
194.1701403815
 20
-41.7402128507
 30
0.0
 40
2.0
100
AcDbArc
 50
180.0
 51
233.9726266149
  0
LINE
  5
108
330
1F
100
AcDbEntity
  8
0
  6
Continuous
 62
     7
370
    25
100
AcDbLine
 10
80.1701403815
 20
26.2413379659
 30
0.0
 11
80.1701403815
 21
-41.7402128507
 31
0.0
  0
LINE
  5
109
330
1F
100
AcDbEntity
  8
0
  6
Continuous
 62
     7
370
    25
100
AcDbLine
 10
192.1701403815
 20
-41.7402128507
 30
0.0
 11
192.1701403815
 21
26.2413379659
 31
0.0
  0
LINE
  5
10A
330
1F
100
AcDbEntity
  8
0
  6
Continuous
 62
     7
370
    25
100
AcDbLine
 10
69.1701403815
 20
-133.7586620341
 30
0.0
 11
203.1701403815
 21
-133.7586620341
 31
0.0
  0
LINE
  5
10B
330
1F
100
AcDbEntity
  8
0
  6
Continuous
 62
     7
370
    25
100
AcDbLine
 10
80.1701403815
 20
26.2413379659
 30
0.0
 11
192.1701403815
 21
26.2413379659
 31
0.0
  0
LINE
  5
10C
330
1F
100
AcDbEntity
  8
0
  6
Continuous
 62
     1
370
    25
100
AcDbLine
 10
69.1701403815
 20
-51.7771112175
 30
0.0
 11
203.1701403815
 21
-51.7771112175
 31
0.0
  0
LINE
  5
10D
330
1F
100
AcDbEntity
  8
0
  6
Continuous
 62
     1
370
    25
100
AcDbLine
 10
69.9937969861
 20
-50.1596390489
 30
0.0
 11
202.3464837768
 21
-50.1596390489
 31
0.0
  0
LINE
  5
10E
330
1F
100
AcDbEntity
  8
0
  6
Continuous
 62
     1
370
    25
100
AcDbLine
 10
79.3464837768
 20
-43.3576850193
 30
0.0
 11
192.9937969861
 21
-43.3576850193
 31
0.0
  0
LINE
  5
10F
330
1F
100
AcDbEntity
  8
0
  6
Continuous
 62
     1
370
    25
100
AcDbLine
 10
80.1701403815
 20
-41.7402128507
 30
0.0
 11
192.1701403815
 21
-41.7402128507
 31
0.0
  0
LINE
  5
110
330
1F
100
AcDbEntity
  8
0
  6
Continuous
 62
     7
370
    25
100
AcDbLine
 10
359.738307964
 20
4.5060839802
 30
0.0
 11
301.7685974494
 21
37.9712855334
 31
0.0
  0
LINE
  5
111
330
1F
100
AcDbEntity
  8
0
  6
Continuous
 62
     7
370
    25
100
AcDbLine
 10
234.7740423628
 20
-78.0792620256
 30
0.0
 11
267.8362239715
 21
-97.1656532031
 31
0.0
  0
LINE
  5
112
330
1F
100
AcDbEntity
  8
0
  6
Continuous
 62
     7
370
    25
100
AcDbLine
 10
270.4802555145
 20
-98.6920201232
 30
0.0
 11
292.7437528774
 21
-111.5444635789
 31
0.0
  0
LINE
  5
113
330
1F
100
AcDbEntity
  8
0
  6
Continuous
 62
     7
370
    25
100
AcDbLine
 10
266.9281741556
 20
-77.8782788486
 30
0.0
 11
266.9281741556
 21
-95.1752121394
 31
0.0
  0
LINE
  5
114
330
1F
100
AcDbEntity
  8
0
  6
Continuous
 62
     7
370
    25
100
AcDbLine
 10
280.9281741556
 20
-95.1752121394
 30
0.0
 11
280.9281741556
 21
-77.878423657
 31
0.0
  0
SPLINE
  5
115
330
1F
100
AcDbEntity
  8
0
  6
Continuous
 62
     7
370
    25
100
AcDbSpline
210
0.0
220
0.0
230
1.0
 70
     8
 71
     3
 72
    26
 73
    22
 74
     0
 42
0.00000001
 43
0.00000001
 40
0.0
 40
0.0
 40
0.0
 40
0.0
 40
0.0482390467180025
 40
0.1033515372077572
 40
0.1584863642985086
 40
0.2136409711769387
 40
0.2688109300109348
 40
0.3239894160527629
 40
0.3791627003059951
 40
0.4343160337476554
 40
0.4894305323733336
 40
0.5444829468716407
 40
0.5994460339972578
 40
0.6542897099264914
 40
0.7089831979930376
 40
0.7634982286949125
 40
0.8178130735343032
 40
0.871916849350516
 40
0.9258132411179635
 40
0.9795227085906268
 40
1.0
 40
1.0
 40
1.0
 40
1.0
 10
373.5344134478332
 20
-36.48403626248175
 30
0.0
 10
373.6422761098263
 20
-35.64430902630495
 30
0.0
 10
373.8733704759624
 20
-33.84520422223543
 30
0.0
 10
374.0881015515596
 20
-31.14100003273859
 30
0.0
 10
374.2076880718355
 20
-28.36757444338917
 30
0.0
 10
374.2082905112932
 20
-25.653328805489
 30
0.0
 10
374.093160070114
 20
-23.00340442007766
 30
0.0
 10
373.861092897907
 20
-20.42463124241729
 30
0.0
 10
373.5124337670849
 20
-17.92334046591295
 30
0.0
 10
373.0475087702695
 20
-15.50593971118968
 30
0.0
 10
372.4670799529237
 20
-13.17870088736769
 30
0.0
 10
371.7722816639961
 20
-10.94782360401447
 30
0.0
 10
370.9646965232803
 20
-8.81939357182119
 30
0.0
 10
370.0464071686217
 20
-6.79929716148632
 30
0.0
 10
369.0199640267106
 20
-4.893226782056407
 30
0.0
 10
367.8886043744012
 20
-3.106223005234047
 30
0.0
 10
366.6553700517783
 20
-1.443866362402374
 30
0.0
 10
365.3261128480088
 20
0.0926524209343207
 30
0.0
 10
363.897863658648
 20
1.488635659136595
 30
0.0
 10
362.7085551576657
 20
2.516902626109895
 30
0.0
 10
361.9665496237092
 20
3.031199495727756
 30
0.0
 10
361.7617386335114
 20
3.173157535528902
 30
0.0
  0
SPLINE
  5
116
330
1F
100
AcDbEntity
  8
0
  6
Continuous
 62
     7
370
    25
100
AcDbSpline
210
0.0
220
0.0
230
1.0
 70
     8
 71
     3
 72
    26
 73
    22
 74
     0
 42
0.00000001
 43
0.00000001
 40
0.0
 40
0.0
 40
0.0
 40
0.0
 40
0.0063827231343613
 40
0.0608838531585487
 40
0.1154565980310587
 40
0.1701565958974607
 40
0.2250263852452421
 40
0.280092441975147
 40
0.3353645902496477
 40
0.3908376034423177
 40
0.4464944090855966
 40
0.5023100863991079
 40
0.5582558504585698
 40
0.6143024181305656
 40
0.6704224442747199
 40
0.7265919902516674
 40
0.7827911704879332
 40
0.8390042027856094
 40
0.8952168275204369
 40
0.9514203216752045
 40
1.0
 40
1.0
 40
1.0
 40
1.0
 10
294.9990593138627
 20
-112.6815669291358
 30
0.0
 10
295.0675159804383
 20
-112.7148330681575
 30
0.0
 10
295.7205140108687
 20
-113.032153854398
 30
0.0
 10
297.028357514294
 20
-113.4991187292705
 30
0.0
 10
298.9217943098154
 20
-114.070366487175
 30
0.0
 10
300.8875498341243
 20
-114.4823776606648
 30
0.0
 10
302.9121754245082
 20
-114.7521993694444
 30
0.0
 10
304.9940062187718
 20
-114.8739048086692
 30
0.0
 10
307.127739132828
 20
-114.8480041475157
 30
0.0
 10
309.3085350749795
 20
-114.6736806029228
 30
0.0
 10
311.5309429085984
 20
-114.3510163336048
 30
0.0
 10
313.7892781918543
 20
-113.8804882424244
 30
0.0
 10
316.077642761762
 20
-113.2631447793238
 30
0.0
 10
318.3900478584275
 20
-112.5005612665533
 30
0.0
 10
320.720486350889
 20
-111.5947803224468
 30
0.0
 10
323.063014710348
 20
-110.5483829331218
 30
0.0
 10
325.4117120845964
 20
-109.3639745472782
 30
0.0
 10
327.7609522487337
 20
-108.0458873060018
 30
0.0
 10
330.1043701283854
 20
-106.5936728635162
 30
0.0
 10
332.3335002878384
 20
-105.0969205383352
 30
0.0
 10
333.7709471006182
 20
-104.0256779359698
 30
0.0
 10
334.4373776172879
 20
-103.5290273784494
 30
0.0
  0
LINE
  5
117
330
1F
100
AcDbEntity
  8
0
  6
Continuous
 62
     7
370
    25
100
AcDbLine
 10
351.8343989459
 20
-86.1379793952
 30
0.0
 11
353.1886445677
 21
-84.3978730872
 31
0.0
  0
LINE
  5
118
330
1F
100
AcDbEntity
  8
0
  6
Continuous
 62
     7
370
    25
100
AcDbLine
 10
366.4573026117
 20
-61.4133927904
 30
0.0
 11
367.2869643664
 21
-59.370450662
 31
0.0
  0
LINE
  5
119
330
1F
100
AcDbEntity
  8
0
  6
Continuous
 62
     7
370
    25
100
AcDbLine
 10
409.4061294097
 20
-36.8679008986
 30
0.0
 11
373.1031978701
 21
-15.9106646081
 31
0.0
  0
LINE
  5
11A
330
1F
100
AcDbEntity
  8
0
  6
Continuous
 62
     7
370
    25
100
AcDbLine
 10
317.0993708488
 20
-112.9033006819
 30
0.0
 11
353.4106803821
 21
-133.8653734852
 31
0.0
  0
LINE
  5
11B
330
1F
100
AcDbEntity
  8
0
  6
Continuous
 62
     7
370
    25
100
AcDbLine
 10
368.7515506464
 20
-127.6482213249
 30
0.0
 11
368.7515506464
 21
-139.2588615766
 31
0.0
  0
LINE
  5
11C
330
1F
100
AcDbEntity
  8
0
  6
Continuous
 62
     7
370
    25
100
AcDbLine
 10
382.7515506464
 20
-139.2588615766
 30
0.0
 11
382.7515506464
 21
-127.6483863311
 31
0.0
  0
LWPOLYLINE
  5
11D
330
1F
100
AcDbEntity
  8
0
  6
Continuous
 62
     7
370
    25
100
AcDbPolyline
 90
        3
 70
   128
 43
0.0
 10
359.738307964
 20
4.5060839802
 10
360.1695670248
 20
4.2506298858
 10
361.6579622359
 20
3.2629283664
  0
LWPOLYLINE
  5
11E
330
1F
100
AcDbEntity
  8
0
  6
Continuous
 62
     7
370
    25
100
AcDbPolyline
 90
        3
 70
   128
 43
0.0
 10
294.8690917021
 20
-112.6247512027
 10
294.0596718784
 20
-112.2466652909
 10
292.7437528774
 20
-111.5444635789
  0
LWPOLYLINE
  5
11F
330
1F
100
AcDbEntity
  8
0
  6
Continuous
 62
     7
370
    25
100
AcDbPolyline
 90
      123
 70
   128
 43
0.0
 10
220.8951655666
 20
-47.4036599922
 10
220.9579820888
 20
-44.5510850034
 10
221.1462650775
 20
-41.6335481178
 10
221.4595152399
 20
-38.6587861187
 10
221.8969018929
 20
-35.6346875403
 10
222.4572651658
 20
-32.5692717484
 10
223.1391190758
 20
-29.4706676744
 10
223.9406554691
 20
-26.3470922594
 10
224.8597488152
 20
-23.2068286639
 10
225.8939618437
 20
-20.0582043024
 10
227.0405520076
 20
-16.9095687606
 10
228.296478756
 20
-13.7692716541
 10
229.6584115968
 20
-10.6456404862
 10
231.122738929
 20
-7.5469585652
 10
232.6855776198
 20
-4.4814430385
 10
234.3427833019
 20
-1.4572231022
 10
236.0899613638
 20
1.517681556
 10
237.9224786032
 20
4.4353820239
 10
239.835475514
 20
7.2881410842
 10
241.8238791723
 20
10.0683937328
 10
243.8824166889
 20
12.7687672396
 10
246.0056291924
 20
15.3821006993
 10
248.1878863051
 20
17.9014640214
 10
250.4234010732
 20
20.3201763074
 10
252.7062453136
 20
22.6318235671
 10
255.0303653337
 20
24.8302757274
 10
257.3895979849
 20
26.9097028885
 10
259.7776870065
 20
28.8645907834
 10
262.1882996157
 20
30.6897554007
 10
264.6150433011
 20
32.3803567321
 10
267.0514827748
 20
33.9319116067
 10
269.4911570373
 20
35.3403055799
 10
271.927596511
 20
36.6018038441
 10
274.3543401964
 20
37.7130611327
 10
276.7649528056
 20
38.6711305911
 10
279.1530418272
 20
39.4734715913
 10
281.5122744785
 20
40.1179564693
 10
283.8363944985
 20
40.6028761669
 10
286.1192387389
 20
40.9269447644
 10
288.3547535071
 20
41.0893028901
 10
290.5370106197
 20
41.0895199994
 10
292.6602231233
 20
40.9275955166
 10
294.7187606399
 20
40.6039588363
 10
296.7071642981
 20
40.1194681848
 10
298.6201612089
 20
39.4754083442
 10
300.4526784484
 20
38.6734872454
 10
302.1998565102
 20
37.715831439
 10
303.8570621923
 20
36.6049804561
 10
305.4199008831
 20
35.3438800738
 10
306.8842282153
 20
33.9358745035
 10
308.2461610561
 20
32.3846975229
 10
309.5020878045
 20
30.6944625746
 10
310.6486779684
 20
28.8696518577
 10
311.6828909969
 20
26.9151044423
 10
312.601984343
 20
24.8360034366
 10
313.4035207363
 20
22.6378622429
 10
314.0853746463
 20
20.3265099364
 10
314.6457379192
 20
17.9080758079
 10
315.0831245723
 20
15.3889731099
 10
315.3963747347
 20
12.77588205
 10
315.5846577233
 20
10.0757320759
 10
315.6474742456
 20
7.2956834999
 10
315.5846577233
 20
4.4431085111
 10
315.3963747347
 20
1.5255716255
 10
315.0831245723
 20
-1.4491903735
 10
314.6457379192
 20
-4.4732889519
 10
314.0853746463
 20
-7.5387047439
 10
313.4035207363
 20
-10.6373088178
 10
312.601984343
 20
-13.7608842328
 10
311.6828909969
 20
-16.9011478283
 10
310.6486779684
 20
-20.0497721898
 10
309.5020878045
 20
-23.1984077316
 10
308.2461610561
 20
-26.3387048381
 10
306.8842282153
 20
-29.4623360061
 10
305.4199008831
 20
-32.5610179271
 10
303.8570621923
 20
-35.6265334537
 10
302.1998565102
 20
-38.65075339
 10
300.4526784484
 20
-41.6256580482
 10
298.6201612089
 20
-44.5433585161
 10
296.7071642981
 20
-47.3961175764
 10
294.7187606399
 20
-50.1763702251
 10
292.6602231233
 20
-52.8767437318
 10
290.5370106197
 20
-55.4900771915
 10
288.3547535071
 20
-58.0094405137
 10
286.1192387389
 20
-60.4281527997
 10
283.8363944985
 20
-62.7398000593
 10
281.5122744785
 20
-64.9382522196
 10
279.1530418272
 20
-67.0176793807
 10
276.7649528056
 20
-68.9725672756
 10
274.3543401964
 20
-70.7977318929
 10
271.927596511
 20
-72.4883332243
 10
269.4911570373
 20
-74.0398880989
 10
267.0514827748
 20
-75.4482820721
 10
264.6150433011
 20
-76.7097803363
 10
262.1882996157
 20
-77.8210376249
 10
259.7776870065
 20
-78.7791070833
 10
257.3895979849
 20
-79.5814480835
 10
255.0303653337
 20
-80.2259329615
 10
252.7062453136
 20
-80.7108526592
 10
250.4234010732
 20
-81.0349212567
 10
248.1878863051
 20
-81.1972793824
 10
246.0056291924
 20
-81.1974964917
 10
243.8824166889
 20
-81.0355720089
 10
241.8238791723
 20
-80.7119353285
 10
239.835475514
 20
-80.227444677
 10
237.9224786032
 20
-79.5833848364
 10
236.0899613638
 20
-78.7814637376
 10
234.3427833019
 20
-77.8238079313
 10
232.6855776198
 20
-76.7129569483
 10
231.122738929
 20
-75.451856566
 10
229.6584115968
 20
-74.0438509957
 10
228.296478756
 20
-72.4926740151
 10
227.0405520076
 20
-70.8024390668
 10
225.8939618437
 20
-68.9776283499
 10
224.8597488152
 20
-67.0230809345
 10
223.9406554691
 20
-64.9439799289
 10
223.1391190758
 20
-62.7458387351
 10
222.4572651658
 20
-60.4344864286
 10
221.8969018929
 20
-58.0160523001
 10
221.4595152399
 20
-55.4969496022
 10
221.1462650775
 20
-52.8838585423
 10
220.9579820888
 20
-50.1837085682
 10
220.8951655666
 20
-47.4036599922
  0
SPLINE
  5
120
330
1F
100
AcDbEntity
  8
0
  6
Continuous
 62
     7
370
    25
100
AcDbSpline
210
0.0
220
0.0
230
1.0
 70
     8
 71
     3
 72
    12
 73
     8
 74
     0
 42
0.00000001
 43
0.00000001
 40
0.0
 40
0.0
 40
0.0
 40
0.0
 40
0.2139697243363633
 40
0.4279427389424647
 40
0.6418766434257818
 40
0.855815305362651
 40
1.0
 40
1.0
 40
1.0
 40
1.0
 10
268.9784266872445
 20
-75.17042669837173
 30
0.0
 10
268.7148998188688
 20
-75.33683245947755
 30
0.0
 10
268.1878420297944
 20
-75.66964654055515
 30
0.0
 10
267.5924031222457
 20
-76.23551521547829
 30
0.0
 10
267.1767554327412
 20
-76.83329479492657
 30
0.0
 10
266.9496595344499
 20
-77.3867124443106
 30
0.0
 10
266.9502821544431
 20
-77.73743804101052
 30
0.0
 10
266.9505328286086
 20
-77.87864431011684
 30
0.0
  0
SPLINE
  5
121
330
1F
100
AcDbEntity
  8
0
  6
Continuous
 62
     7
370
    25
100
AcDbSpline
210
0.0
220
0.0
230
1.0
 70
     8
 71
     3
 72
    21
 73
    17
 74
     0
 42
0.00000001
 43
0.00000001
 40
0.0
 40
0.0
 40
0.0
 40
0.0
 40
0.0476777652637206
 40
0.1194024611132332
 40
0.1911255286342516
 40
0.262711160383219
 40
0.3342956673807176
 40
0.4055341166023047
 40
0.4767736892330702
 40
0.5480000521257734
 40
0.6192279947877695
 40
0.6907942895219332
 40
0.7623601757855406
 40
0.8340899363630387
 40
0.9058179000131409
 40
1.0
 40
1.0
 40
1.0
 40
1.0
 10
280.9057506556287
 20
-77.87878019570773
 30
0.0
 10
280.9061711818078
 20
-77.71624255513865
 30
0.0
 10
280.907224332275
 20
-77.30918920018085
 30
0.0
 10
280.679317142626
 20
-76.67093084160751
 30
0.0
 10
280.2633044924862
 20
-75.9924539877173
 30
0.0
 10
279.6557856523719
 20
-75.37947623640416
 30
0.0
 10
278.8924007228823
 20
-74.84873181299294
 30
0.0
 10
277.9865458585554
 20
-74.41969946318765
 30
0.0
 10
276.9708197600978
 20
-74.09830687996306
 30
0.0
 10
275.8683583324215
 20
-73.8958730605631
 30
0.0
 10
274.711207090185
 20
-73.80932145408936
 30
0.0
 10
273.5300602884395
 20
-73.84277884640882
 30
0.0
 10
272.3563078180924
 20
-73.98658016036183
 30
0.0
 10
271.2296446533227
 20
-74.23891092552999
 30
0.0
 10
270.0551647457517
 20
-74.61472014951411
 30
0.0
 10
269.3683248297839
 20
-74.96919952943803
 30
0.0
 10
268.9784266872445
 20
-75.17042669837173
 30
0.0
  0
LWPOLYLINE
  5
122
330
1F
100
AcDbEntity
  8
0
  6
Continuous
 62
     7
370
    25
100
AcDbPolyline
 90
      111
 70
   128
 43
0.0
 10
229.3804469408
 20
-42.5052113212
 10
229.4438739128
 20
-39.9047517912
 10
229.6339479433
 20
-37.2395431966
 10
229.9500490503
 20
-34.5182788937
 10
230.3911461776
 20
-31.7498350812
 10
230.9558005582
 20
-28.9432418474
 10
231.6421704067
 20
-26.1076537159
 10
232.4480169275
 20
-23.2523197859
 10
233.3707116166
 20
-20.3865535633
 10
234.4072448358
 20
-17.5197025817
 10
235.5542356291
 20
-14.6611179131
 10
236.8079427511
 20
-11.8201236667
 10
238.1642768696
 20
-9.0059865751
 10
239.6188139046
 20
-6.2278857686
 10
241.1668094588
 20
-3.4948828346
 10
242.8032142923
 20
-0.8158922607
 10
244.5226907927
 20
1.8003476429
 10
246.319630385
 20
4.3453032453
 10
248.1881718259
 20
6.8106734303
 10
250.1222203215
 20
9.1884166727
 10
252.1154674075
 20
11.4707772684
 10
254.1614115264
 20
13.6503106316
 10
256.2533792337
 20
15.7199075772
 10
258.3845469655
 20
17.6728175104
 10
260.5479632956
 20
19.5026704448
 10
262.7365716097
 20
21.2034977806
 10
264.9432331223
 20
22.7697517723
 10
267.1607501623
 20
24.1963236251
 10
269.3818896499
 20
25.4785601582
 10
271.5994066898
 20
26.6122789823
 10
273.8060682024
 20
27.5937821425
 10
275.9946765165
 20
28.4198681794
 10
278.1580928466
 20
29.087842572
 10
280.2892605784
 20
29.5955265267
 10
282.3812282857
 20
29.941264084
 10
284.4271724046
 20
30.1239275198
 10
286.4204194907
 20
30.1429210239
 10
288.3544679862
 20
29.9981826436
 10
290.2230094271
 20
29.6901844853
 10
292.0199490195
 20
29.219931175
 10
293.7394255199
 20
28.5889565812
 10
295.3758303533
 20
27.799318812
 10
296.9238259075
 20
26.8535935015
 10
298.3783629425
 20
25.7548654093
 10
299.734697061
 20
24.5067183578
 10
300.988404183
 20
23.1132235435
 10
302.1353949763
 20
21.5789262567
 10
303.1719281955
 20
19.9088310564
 10
304.0946228846
 20
18.1083854458
 10
304.9004694054
 20
16.1834621043
 10
305.586839254
 20
14.1403397319
 10
306.1514936345
 20
11.985682569
 10
306.5925907618
 20
9.7265186594
 10
306.9086918688
 20
7.3702169262
 10
307.0987658993
 20
4.9244631359
 10
307.1621928713
 20
2.397234829
 10
307.0987658993
 20
-0.203224701
 10
306.9086918688
 20
-2.8684332956
 10
306.5925907618
 20
-5.5896975985
 10
306.1514936345
 20
-8.358141411
 10
305.586839254
 20
-11.1647346449
 10
304.9004694054
 20
-14.0003227763
 10
304.0946228846
 20
-16.8556567063
 10
303.1719281955
 20
-19.721422929
 10
302.1353949763
 20
-22.5882739106
 10
300.988404183
 20
-25.4468585791
 10
299.734697061
 20
-28.2878528255
 10
298.3783629425
 20
-31.1019899171
 10
296.9238259075
 20
-33.8800907236
 10
295.3758303533
 20
-36.6130936576
 10
293.7394255199
 20
-39.2920842316
 10
292.0199490195
 20
-41.9083241351
 10
290.2230094271
 20
-44.4532797375
 10
288.3544679862
 20
-46.9186499225
 10
286.4204194907
 20
-49.296393165
 10
284.4271724046
 20
-51.5787537607
 10
282.3812282857
 20
-53.7582871238
 10
280.2892605784
 20
-55.8278840695
 10
278.1580928466
 20
-57.7807940027
 10
275.9946765165
 20
-59.6106469371
 10
273.8060682024
 20
-61.3114742728
 10
271.5994066898
 20
-62.8777282645
 10
269.3818896499
 20
-64.3043001174
 10
267.1607501623
 20
-65.5865366504
 10
264.9432331223
 20
-66.7202554746
 10
262.7365716097
 20
-67.7017586347
 10
260.5479632956
 20
-68.5278446716
 10
258.3845469655
 20
-69.1958190642
 10
256.2533792337
 20
-69.7035030189
 10
254.1614115264
 20
-70.0492405762
 10
252.1154674075
 20
-70.231904012
 10
250.1222203214
 20
-70.2508975162
 10
248.1881718259
 20
-70.1061591359
 10
246.319630385
 20
-69.7981609776
 10
244.5226907927
 20
-69.3279076672
 10
242.8032142923
 20
-68.6969330735
 10
241.1668094588
 20
-67.9072953042
 10
239.6188139046
 20
-66.9615699938
 10
238.1642768696
 20
-65.8628419015
 10
236.8079427511
 20
-64.6146948501
 10
235.5542356291
 20
-63.2212000358
 10
234.4072448358
 20
-61.686902749
 10
233.3707116166
 20
-60.0168075486
 10
232.4480169275
 20
-58.216361938
 10
231.6421704067
 20
-56.2914385966
 10
230.9558005582
 20
-54.2483162241
 10
230.3911461776
 20
-52.0936590612
 10
229.9500490503
 20
-49.8344951516
 10
229.6339479433
 20
-47.4781934184
 10
229.4438739128
 20
-45.0324396281
 10
229.3804469408
 20
-42.5052113212
  0
LWPOLYLINE
  5
123
330
1F
100
AcDbEntity
  8
0
  6
Continuous
 62
     7
370
    25
100
AcDbPolyline
 90
       40
 70
   128
 43
0.0
 10
268.9784266872
 20
-92.317783748
 10
269.8365199483
 20
-91.896422947
 10
270.800584904
 20
-91.5599810637
 10
271.8456527786
 20
-91.3171717664
 10
272.9446568629
 20
-91.1742836882
 10
274.0691335284
 20
-91.1350175553
 10
275.1899594202
 20
-91.2003903398
 10
276.2781057365
 20
-91.3687089212
 10
277.3053900592
 20
-91.6356139364
 10
278.245206264
 20
-91.9941926858
 10
279.0732136047
 20
-92.4351581681
 10
279.7679671263
 20
-92.947089609
 10
280.3114730775
 20
-93.5167282531
 10
280.6896549396
 20
-94.1293207586
 10
280.892718001
 20
-94.7690013015
 10
280.9154030351
 20
-95.4192024918
 10
280.7571225115
 20
-96.0630844601
 10
280.4219758125
 20
-96.6839710017
 10
279.9186430617
 20
-97.2657814812
 10
279.2601603128
 20
-97.7934473129
 10
278.4635819232
 20
-98.2533022289
 10
277.5495388548
 20
-98.6334362285
 10
276.5417043429
 20
-98.9240040406
 10
275.4661807719
 20
-99.1174801117
 10
274.3508236375
 20
-99.2088535131
 10
273.2245201035
 20
-99.1957577216
 10
272.1164408398
 20
-99.0785319115
 10
271.0552845174
 20
-98.8602121696
 10
270.0685345275
 20
-98.5464528625
 10
269.1817471766
 20
-98.1453801916
 10
268.4178897913
 20
-97.6673817282
 10
267.7967458766
 20
-97.1248373816
 10
267.3344027336
 20
-96.5317987653
 10
267.0428348069
 20
-95.903625268
 10
266.9295935527
 20
-95.2565862532
 10
266.9976118598
 20
-94.6074396917
 10
267.24512809
 20
-93.9729981383
 10
267.6657317028
 20
-93.369693296
 10
268.2485292857
 20
-92.8131504434
 10
268.9784266872
 20
-92.317783748
  0
LWPOLYLINE
  5
124
330
1F
100
AcDbEntity
  8
0
  6
Continuous
 62
     7
370
    25
100
AcDbPolyline
 90
       34
 70
   128
 43
0.0
 10
270.3926402496
 20
-93.1341918598
 10
271.1256361443
 20
-92.7848101275
 10
271.9599230647
 20
-92.521823752
 10
272.8653477078
 20
-92.3547377462
 10
273.8091856678
 20
-92.2895910336
 10
274.7573241818
 20
-92.3287381862
 10
275.6754950535
 20
-92.4707643239
 10
276.5305131954
 20
-92.710536252
 10
277.2914760241
 20
-93.0393879884
 10
277.9308803602
 20
-93.4454339743
 10
278.4256164651
 20
-93.9139986501
 10
278.757803287
 20
-94.4281468674
 10
278.9154347286
 20
-94.9692959701
 10
278.8928135789
 20
-95.5178874197
 10
278.6907574252
 20
-96.0540936918
 10
278.3165691034
 20
-96.5585348947
 10
277.7837727543
 20
-97.012979209
 10
277.1116250261
 20
-97.4010018331
 10
276.3244190892
 20
-97.7085786185
 10
275.4506066169
 20
-97.9245929387
 10
274.5217694688
 20
-98.0412374734
 10
273.5714782396
 20
-98.0542963851
 10
272.63407893
 20
-97.9632976909
 10
271.7434515937
 20
-97.7715303205
 10
270.931785823
 20
-97.4859252464
 10
270.2284173336
 20
-97.1168049801
 10
269.6587676954
 20
-96.6775104897
 10
269.2434255306
 20
-96.1839190228
 10
268.997402387
 20
-95.653870261
 10
268.9295901821
 20
-95.1065215475
 10
269.0424398257
 20
-94.561655491
 10
269.3318726376
 20
-94.0389649703
 10
269.787427762
 20
-93.5573413828
 10
270.3926402496
 20
-93.1341918598
  0
ARC
  5
125
330
1F
100
AcDbEntity
  8
0
  6
Continuous
 62
     7
370
    25
100
AcDbCircle
 10
268.7140211128
 20
-20.2839934986
 30
0.0
 40
106.0649759195058
100
AcDbArc
 50
308.3958126606
 51
351.1694043931
  0
ARC
  5
126
330
1F
100
AcDbEntity
  8
0
  6
Continuous
 62
     7
370
    25
100
AcDbCircle
 10
276.4285224039
 20
-24.7630410131
 30
0.0
 40
97.2030326229993
100
AcDbArc
 50
322.1564157947
 51
337.848960738
  0
LWPOLYLINE
  5
127
330
1F
100
AcDbEntity
  8
0
  6
Continuous
 62
     7
370
    25
100
AcDbPolyline
 90
       43
 70
   128
 43
0.0
 10
409.4061294097
 20
-36.8679008986
 10
409.9964076821
 20
-37.2233402228
 10
411.5007410322
 20
-38.2732594464
 10
412.9086795574
 20
-39.4740329564
 10
414.2157132064
 20
-40.8218143132
 10
415.4176551563
 20
-42.3122861669
 10
416.5106552246
 20
-43.9406740868
 10
417.4912122027
 20
-45.7017618553
 10
418.3561850709
 20
-47.5899081776
 10
419.1028030603
 20
-49.5990647516
 10
419.7286745285
 20
-51.7227956432
 10
420.2317946205
 20
-53.9542979021
 10
420.6105516909
 20
-56.2864233538
 10
420.8637324666
 20
-58.7117014973
 10
420.9905259333
 20
-61.2223634357
 10
420.9905259333
 20
-63.8103667618
 10
420.8637324666
 20
-66.4674213208
 10
420.6105516909
 20
-69.1850157659
 10
420.2317946205
 20
-71.9544448227
 10
419.7286745285
 20
-74.7668371752
 10
419.1028030603
 20
-77.6131838827
 10
418.3561850709
 20
-80.4843672386
 10
417.4912122027
 20
-83.371189977
 10
416.5106552246
 20
-86.2644047345
 10
415.4176551563
 20
-89.1547436719
 10
414.2157132064
 20
-92.0329481621
 10
412.9086795574
 20
-94.8897984487
 10
411.5007410322
 20
-97.7161431787
 10
409.9964076821
 20
-100.502928718
 10
408.4004983406
 20
-103.2412281523
 10
406.7181251864
 20
-105.922269883
 10
404.9546773678
 20
-108.5374657252
 10
403.1158037398
 20
-111.0784384182
 10
401.2073947691
 20
-113.5370484603
 10
399.235563665
 20
-115.9054201825
 10
397.2066267968
 20
-118.1759669761
 10
395.1270834612
 20
-120.3414155952
 10
393.0035950622
 20
-122.394829455
 10
390.8429637735
 20
-124.329630852
 10
388.6521107484
 20
-126.1396220338
 10
386.4380539497
 20
-127.8190050532
 10
384.2078856687
 20
-129.36240034
 10
382.7515506464
 20
-130.29122868
  0
ARC
  5
128
330
1F
100
AcDbEntity
  8
0
  6
Continuous
 62
     7
370
    25
100
AcDbCircle
 10
363.9513601512
 20
-114.313500098
 30
0.0
 40
22.21219671594713
100
AcDbArc
 50
241.6702917098
 51
282.4804259693
  0
SPLINE
  5
129
330
1F
100
AcDbEntity
  8
0
  6
Continuous
 62
     7
370
    25
100
AcDbSpline
210
0.0
220
0.0
230
1.0
 70
     8
 71
     3
 72
    12
 73
     8
 74
     0
 42
0.00000001
 43
0.00000001
 40
0.0
 40
0.0
 40
0.0
 40
0.0
 40
0.2136274399970549
 40
0.427259557318494
 40
0.6408360598983123
 40
0.8544193390695218
 40
1.0
 40
1.0
 40
1.0
 40
1.0
 10
370.8018031781075
 20
-124.9698618188634
 30
0.0
 10
370.5386011492682
 20
-125.1357103775301
 30
0.0
 10
370.0121913288407
 20
-125.4674111260801
 30
0.0
 10
369.4172995804312
 20
-126.0274042711056
 30
0.0
 10
369.0016138084448
 20
-126.6166340394303
 30
0.0
 10
368.7736622012682
 20
-127.1622642423975
 30
0.0
 10
368.7736577972864
 20
-127.5083266361526
 30
0.0
 10
368.7736560122114
 20
-127.648596820269
 30
0.0
  0
SPLINE
  5
12A
330
1F
100
AcDbEntity
  8
0
  6
Continuous
 62
     7
370
    25
100
AcDbSpline
210
0.0
220
0.0
230
1.0
 70
     8
 71
     3
 72
    21
 73
    17
 74
     0
 42
0.00000001
 43
0.00000001
 40
0.0
 40
0.0
 40
0.0
 40
0.0
 40
0.0460049323925319
 40
0.1177843801232362
 40
0.1895615040078099
 40
0.2611494937933523
 40
0.3327358287965788
 40
0.4038242623238952
 40
0.4749142730458731
 40
0.5459775430402367
 40
0.617043079615423
 40
0.6885908179183223
 40
0.7601380187990047
 40
0.8319279663153238
 40
0.903715333795588
 40
1.0
 40
1.0
 40
1.0
 40
1.0
 10
382.7285025263761
 20
-127.6487014970394
 30
0.0
 10
382.7297262817635
 20
-127.4897846960596
 30
0.0
 10
382.7328594081966
 20
-127.0829170859769
 30
0.0
 10
382.5100496912867
 20
-126.441139807669
 30
0.0
 10
382.0983678545985
 20
-125.7534614130422
 30
0.0
 10
381.4943581653681
 20
-125.1336451020829
 30
0.0
 10
380.7346630972382
 20
-124.5992789433605
 30
0.0
 10
379.8327248081384
 20
-124.170079338508
 30
0.0
 10
378.8215292458746
 20
-123.851351179336
 30
0.0
 10
377.7234684131367
 20
-123.6537590161922
 30
0.0
 10
376.569607100286
 20
-123.5731955745028
 30
0.0
 10
375.3901243356772
 20
-123.6131265525271
 30
0.0
 10
374.2157403568205
 20
-123.7632367916426
 30
0.0
 10
373.0868079290646
 20
-124.0207263390479
 30
0.0
 10
371.8980596461009
 20
-124.4038551092259
 30
0.0
 10
371.2010844830243
 20
-124.7637094227647
 30
0.0
 10
370.8018031781075
 20
-124.9698618188634
 30
0.0
  0
LWPOLYLINE
  5
12B
330
1F
100
AcDbEntity
  8
0
  6
Continuous
 62
     7
370
    25
100
AcDbPolyline
 90
       40
 70
   128
 43
0.0
 10
370.8018031781
 20
-136.4014331853
 10
371.6598964391
 20
-135.9800723842
 10
372.6239613949
 20
-135.643630501
 10
373.6690292694
 20
-135.4008212037
 10
374.7680333537
 20
-135.2579331255
 10
375.8925100193
 20
-135.2186669926
 10
377.0133359111
 20
-135.2840397771
 10
378.1014822274
 20
-135.4523583585
 10
379.1287665501
 20
-135.7192633737
 10
380.0685827548
 20
-136.0778421231
 10
380.8965900956
 20
-136.5188076054
 10
381.5913436172
 20
-137.0307390463
 10
382.1348495684
 20
-137.6003776904
 10
382.5130314304
 20
-138.2129701959
 10
382.7160944919
 20
-138.8526507388
 10
382.738779526
 20
-139.5028519291
 10
382.5804990023
 20
-140.1467338974
 10
382.2453523034
 20
-140.767620439
 10
381.7420195525
 20
-141.3494309185
 10
381.0835368037
 20
-141.8770967502
 10
380.2869584141
 20
-142.3369516662
 10
379.3729153457
 20
-142.7170856658
 10
378.3650808337
 20
-143.0076534779
 10
377.2895572628
 20
-143.201129549
 10
376.1742001284
 20
-143.2925029503
 10
375.0478965944
 20
-143.2794071589
 10
373.9398173307
 20
-143.1621813488
 10
372.8786610082
 20
-142.9438616069
 10
371.8919110184
 20
-142.6301022998
 10
371.0051236675
 20
-142.2290296288
 10
370.2412662822
 20
-141.7510311655
 10
369.6201223674
 20
-141.2084868189
 10
369.1577792245
 20
-140.6154482026
 10
368.8662112978
 20
-139.9872747052
 10
368.7529700435
 20
-139.3402356905
 10
368.8209883507
 20
-138.6910891289
 10
369.0685045809
 20
-138.0566475756
 10
369.4891081937
 20
-137.4533427333
 10
370.0719057765
 20
-136.8967998807
 10
370.8018031781
 20
-136.4014331853
  0
LWPOLYLINE
  5
12C
330
1F
100
AcDbEntity
  8
0
  6
Continuous
 62
     7
370
    25
100
AcDbPolyline
 90
       34
 70
   128
 43
0.0
 10
372.2160167405
 20
-137.2178412971
 10
372.9490126352
 20
-136.8684595648
 10
373.7832995556
 20
-136.6054731893
 10
374.6887241986
 20
-136.4383871835
 10
375.6325621587
 20
-136.3732404709
 10
376.5807006727
 20
-136.4123876235
 10
377.4988715444
 20
-136.5544137612
 10
378.3538896863
 20
-136.7941856893
 10
379.1148525149
 20
-137.1230374256
 10
379.754256851
 20
-137.5290834116
 10
380.248992956
 20
-137.9976480874
 10
380.5811797779
 20
-138.5117963047
 10
380.7388112195
 20
-139.0529454074
 10
380.7161900698
 20
-139.601536857
 10
380.5141339161
 20
-140.1377431291
 10
380.1399455942
 20
-140.642184332
 10
379.6071492451
 20
-141.0966286463
 10
378.935001517
 20
-141.4846512704
 10
378.14779558
 20
-141.7922280558
 10
377.2739831078
 20
-142.008242376
 10
376.3451459597
 20
-142.1248869107
 10
375.3948547304
 20
-142.1379458224
 10
374.4574554209
 20
-142.0469471282
 10
373.5668280846
 20
-141.8551797578
 10
372.7551623139
 20
-141.5695746837
 10
372.0517938245
 20
-141.2004544174
 10
371.4821441863
 20
-140.761159927
 10
371.0668020214
 20
-140.2675684601
 10
370.8207788778
 20
-139.7375196983
 10
370.7529666729
 20
-139.1901709848
 10
370.8658163166
 20
-138.6453049283
 10
371.1552491285
 20
-138.1226144076
 10
371.6108042529
 20
-137.6409908201
 10
372.2160167405
 20
-137.2178412971
  0
LWPOLYLINE
  5
12D
330
1F
100
AcDbEntity
  8
0
  6
Continuous
 62
     1
370
    25
100
AcDbPolyline
 90
       61
 70
   128
 43
0.0
 10
361.6579622359
 20
3.2629283664
 10
361.8267727069
 20
3.1397789029
 10
363.3896113977
 20
1.8786785205
 10
364.8539387299
 20
0.4706729502
 10
366.2158715707
 20
-1.0805040303
 10
367.4717983191
 20
-2.7707389786
 10
368.618388483
 20
-4.5955496955
 10
369.6526015115
 20
-6.550097111
 10
370.5716948576
 20
-8.6291981166
 10
371.3732312509
 20
-10.8273393103
 10
372.0550851609
 20
-13.1386916168
 10
372.6154484338
 20
-15.5571257453
 10
373.0528350869
 20
-18.0762284433
 10
373.3660852493
 20
-20.6893195032
 10
373.5543682379
 20
-23.3894694773
 10
373.6171847602
 20
-26.1695180533
 10
373.5543682379
 20
-29.0220930421
 10
373.3660852493
 20
-31.9396299277
 10
373.0528350869
 20
-34.9143919267
 10
372.6154484338
 20
-37.9384905051
 10
372.0550851609
 20
-41.0039062971
 10
371.3732312509
 20
-44.1025103711
 10
370.5716948576
 20
-47.2260857861
 10
369.6526015115
 20
-50.3663493816
 10
368.618388483
 20
-53.5149737431
 10
367.4717983191
 20
-56.6636092848
 10
366.2158715707
 20
-59.8039063914
 10
364.8539387299
 20
-62.9275375593
 10
363.3896113977
 20
-66.0262194803
 10
361.8267727069
 20
-69.091735007
 10
360.1695670248
 20
-72.1159549432
 10
358.422388963
 20
-75.0908596015
 10
356.5898717235
 20
-78.0085600693
 10
354.6768748127
 20
-80.8613191297
 10
352.6884711545
 20
-83.6415717783
 10
350.6299336379
 20
-86.341945285
 10
348.5067211343
 20
-88.9552787448
 10
346.3244640217
 20
-91.4746420669
 10
344.0889492535
 20
-93.8933543529
 10
341.8061050131
 20
-96.2050016125
 10
339.4819849931
 20
-98.4034537729
 10
337.1227523418
 20
-100.482880934
 10
334.7346633202
 20
-102.4377688288
 10
332.324050711
 20
-104.2629334462
 10
329.8973070256
 20
-105.9535347775
 10
327.4608675519
 20
-107.5050896522
 10
325.0211932894
 20
-108.9134836254
 10
322.5847538157
 20
-110.1749818896
 10
320.1580101303
 20
-111.2862391782
 10
317.7473975211
 20
-112.2443086365
 10
315.3593084995
 20
-113.0466496368
 10
313.0000758483
 20
-113.6911345147
 10
310.6759558282
 20
-114.1760542124
 10
308.3931115878
 20
-114.5001228099
 10
306.1575968197
 20
-114.6624809356
 10
303.975339707
 20
-114.6626980449
 10
301.8521272035
 20
-114.5007735621
 10
299.7935896869
 20
-114.1771368818
 10
297.8051860286
 20
-113.6926462303
 10
295.8921891178
 20
-113.0485863897
 10
294.8690917021
 20
-112.6247512027
  0
ARC
  5
12E
330
1F
100
AcDbEntity
  8
0
  6
Continuous
 62
     1
370
    25
100
AcDbCircle
 10
283.2840578298
 20
-28.7206573742
 30
0.0
 40
90.20654233328919
100
AcDbArc
 50
309.5249434472
 51
350.4804330855
  0
ENDSEC
  0
SECTION
  2
OBJECTS
  0
DICTIONARY
  5
C
330
0
100
AcDbDictionary
281
     1
  3
ACAD_GROUP
350
D
  3
ACAD_LAYOUT
350
1A
  3
ACAD_MLINESTYLE
350
17
  3
ACAD_PLOTSETTINGS
350
19
  3
ACAD_PLOTSTYLENAME
350
E
  3
ACAD_SCALELIST
350
47
  3
DWGPROPS
350
12F
  0
DICTIONARY
  5
D
102
{ACAD_REACTORS
330
C
102
}
330
C
100
AcDbDictionary
281
     1
  0
DICTIONARY
  5
1A
102
{ACAD_REACTORS
330
C
102
}
330
C
100
AcDbDictionary
281
     1
  3
Layout1
350
1E
  3
Layout2
350
26
  3
Model
350
22
  0
DICTIONARY
  5
17
102
{ACAD_REACTORS
330
C
102
}
330
C
100
AcDbDictionary
281
     1
  3
Standard
350
18
  0
DICTIONARY
  5
19
102
{ACAD_REACTORS
330
C
102
}
330
C
100
AcDbDictionary
281
     1
  0
ACDBDICTIONARYWDFLT
  5
E
102
{ACAD_REACTORS
330
C
102
}
330
C
100
AcDbDictionary
281
     1
  3
Normal
350
F
100
AcDbDictionaryWithDefault
340
F
  0
DICTIONARY
  5
47
102
{ACAD_REACTORS
330
C
102
}
330
C
100
AcDbDictionary
281
     1
  3
A0
350
48
  3
A1
350
49
  3
A2
350
4A
  3
A3
350
4B
  3
A4
350
4C
  3
A5
350
4D
  3
A6
350
4E
  3
A7
350
4F
  3
A8
350
50
  3
A9
350
51
  3
B0
350
52
  3
B1
350
53
  3
B2
350
54
  3
B3
350
55
  3
B4
350
56
  3
B5
350
57
  3
B6
350
58
  3
B7
350
59
  3
B8
350
5A
  3
B9
350
5B
  3
C0
350
5C
  3
C1
350
5D
  3
C2
350
5E
  3
C3
350
5F
  3
C4
350
60
  3
C5
350
61
  3
C6
350
62
  3
C7
350
63
  3
C8
350
64
  3
C9
350
65
  3
D0
350
66
  3
D1
350
67
  3
D2
350
68
  0
XRECORD
  5
12F
102
{ACAD_REACTORS
330
C
102
}
330
C
100
AcDbXrecord
280
     1
  1
DWGPROPS COOKIE
  2

  3

  4

  6

  7

  8
b.kav
  9

300
=
301
=
302
=
303
=
304
=
305
=
306
=
307
=
308
=
309
=
 40
0.0
 41
2460346.545792095
 42
2460346.545792407
  1

 90
        0
  0
LAYOUT
  5
1E
102
{ACAD_REACTORS
330
1A
102
}
330
1A
100
AcDbPlotSettings
  1

  2
none_device
  4

  6

 40
0.0
 41
0.0
 42
0.0
 43
0.0
 44
0.0
 45
0.0
 46
0.0
 47
0.0
 48
0.0
 49
0.0
140
0.0
141
0.0
142
1.0
143
1.0
 70
   688
 72
     1
 73
     0
 74
     5
  7

 75
    16
147
1.0
148
0.0
149
0.0
100
AcDbLayout
  1
Layout1
 70
     1
 71
     1
 10
0.0
 20
0.0
 11
420.0
 21
297.0
 12
0.0
 22
0.0
 32
0.0
 14
1.0000000000E+20
 24
1.0000000000E+20
 34
1.0000000000E+20
 15
-1.0000000000E+20
 25
-1.0000000000E+20
 35
-1.0000000000E+20
146
0.0
 13
0.0
 23
0.0
 33
0.0
 16
1.0
 26
0.0
 36
0.0
 17
0.0
 27
1.0
 37
0.0
 76
     0
330
1B
  0
LAYOUT
  5
26
102
{ACAD_REACTORS
330
1A
102
}
330
1A
100
AcDbPlotSettings
  1

  2
none_device
  4

  6

 40
0.0
 41
0.0
 42
0.0
 43
0.0
 44
0.0
 45
0.0
 46
0.0
 47
0.0
 48
0.0
 49
0.0
140
0.0
141
0.0
142
1.0
143
1.0
 70
   688
 72
     1
 73
     0
 74
     5
  7

 75
    16
147
1.0
148
0.0
149
0.0
100
AcDbLayout
  1
Layout2
 70
     1
 71
     2
 10
0.0
 20
0.0
 11
0.0
 21
0.0
 12
0.0
 22
0.0
 32
0.0
 14
0.0
 24
0.0
 34
0.0
 15
0.0
 25
0.0
 35
0.0
146
0.0
 13
0.0
 23
0.0
 33
0.0
 16
1.0
 26
0.0
 36
0.0
 17
0.0
 27
1.0
 37
0.0
 76
     0
330
23
  0
LAYOUT
  5
22
102
{ACAD_REACTORS
330
1A
102
}
330
1A
100
AcDbPlotSettings
  1

  2
none_device
  4
Letter_(8.50_x_11.00_Inches)
  6

 40
6.35
 41
6.35
 42
6.35000508
 43
6.35000508
 44
215.9
 45
279.4
 46
0.0
 47
0.0
 48
0.0
 49
0.0
140
0.0
141
0.0
142
1.0
143
1.0
 70
  1712
 72
     1
 73
     0
 74
     0
  7

 75
     0
147
1.0
148
0.0
149
0.0
100
AcDbLayout
  1
Model
 70
     1
 71
     0
 10
0.0
 20
0.0
 11
279.4
 21
215.9
 12
0.0
 22
0.0
 32
0.0
 14
0.0
 24
0.0
 34
0.0
 15
279.4
 25
215.9
 35
0.0
146
0.0
 13
0.0
 23
0.0
 33
0.0
 16
1.0
 26
0.0
 36
0.0
 17
0.0
 27
1.0
 37
0.0
 76
     0
330
1F
331
29
  0
MLINESTYLE
  5
18
102
{ACAD_REACTORS
330
17
102
}
330
17
100
AcDbMlineStyle
  2
Standard
 70
     0
  3

 62
   256
 51
90.0
 52
90.0
 71
     2
 49
0.5
 62
   256
  6
BYLAYER
 49
-0.5
 62
   256
  6
BYLAYER
  0
ACDBPLACEHOLDER
  5
F
102
{ACAD_REACTORS
330
E
102
}
330
E
  0
SCALE
  5
48
102
{ACAD_REACTORS
330
47
102
}
330
47
100
AcDbScale
 70
     0
300
1:1
140
1.0
141
1.0
290
     1
  0
SCALE
  5
49
102
{ACAD_REACTORS
330
47
102
}
330
47
100
AcDbScale
 70
     0
300
1:2
140
1.0
141
2.0
290
     0
  0
SCALE
  5
4A
102
{ACAD_REACTORS
330
47
102
}
330
47
100
AcDbScale
 70
     0
300
1:4
140
1.0
141
4.0
290
     0
  0
SCALE
  5
4B
102
{ACAD_REACTORS
330
47
102
}
330
47
100
AcDbScale
 70
     0
300
1:5
140
1.0
141
5.0
290
     0
  0
SCALE
  5
4C
102
{ACAD_REACTORS
330
47
102
}
330
47
100
AcDbScale
 70
     0
300
1:8
140
1.0
141
8.0
290
     0
  0
SCALE
  5
4D
102
{ACAD_REACTORS
330
47
102
}
330
47
100
AcDbScale
 70
     0
300
1:10
140
1.0
141
10.0
290
     0
  0
SCALE
  5
4E
102
{ACAD_REACTORS
330
47
102
}
330
47
100
AcDbScale
 70
     0
300
1:16
140
1.0
141
16.0
290
     0
  0
SCALE
  5
4F
102
{ACAD_REACTORS
330
47
102
}
330
47
100
AcDbScale
 70
     0
300
1:20
140
1.0
141
20.0
290
     0
  0
SCALE
  5
50
102
{ACAD_REACTORS
330
47
102
}
330
47
100
AcDbScale
 70
     0
300
1:30
140
1.0
141
30.0
290
     0
  0
SCALE
  5
51
102
{ACAD_REACTORS
330
47
102
}
330
47
100
AcDbScale
 70
     0
300
1:40
140
1.0
141
40.0
290
     0
  0
SCALE
  5
52
102
{ACAD_REACTORS
330
47
102
}
330
47
100
AcDbScale
 70
     0
300
1:50
140
1.0
141
50.0
290
     0
  0
SCALE
  5
53
102
{ACAD_REACTORS
330
47
102
}
330
47
100
AcDbScale
 70
     0
300
1:100
140
1.0
141
100.0
290
     0
  0
SCALE
  5
54
102
{ACAD_REACTORS
330
47
102
}
330
47
100
AcDbScale
 70
     0
300
2:1
140
2.0
141
1.0
290
     0
  0
SCALE
  5
55
102
{ACAD_REACTORS
330
47
102
}
330
47
100
AcDbScale
 70
     0
300
4:1
140
4.0
141
1.0
290
     0
  0
SCALE
  5
56
102
{ACAD_REACTORS
330
47
102
}
330
47
100
AcDbScale
 70
     0
300
8:1
140
8.0
141
1.0
290
     0
  0
SCALE
  5
57
102
{ACAD_REACTORS
330
47
102
}
330
47
100
AcDbScale
 70
     0
300
10:1
140
10.0
141
1.0
290
     0
  0
SCALE
  5
58
102
{ACAD_REACTORS
330
47
102
}
330
47
100
AcDbScale
 70
     0
300
100:1
140
100.0
141
1.0
290
     0
  0
SCALE
  5
59
102
{ACAD_REACTORS
330
47
102
}
330
47
100
AcDbScale
 70
     0
300
1/128" = 1'-0"
140
0.0078125
141
12.0
290
     0
  0
SCALE
  5
5A
102
{ACAD_REACTORS
330
47
102
}
330
47
100
AcDbScale
 70
     0
300
1/64" = 1'-0"
140
0.015625
141
12.0
290
     0
  0
SCALE
  5
5B
102
{ACAD_REACTORS
330
47
102
}
330
47
100
AcDbScale
 70
     0
300
1/32" = 1'-0"
140
0.03125
141
12.0
290
     0
  0
SCALE
  5
5C
102
{ACAD_REACTORS
330
47
102
}
330
47
100
AcDbScale
 70
     0
300
1/16" = 1'-0"
140
0.0625
141
12.0
290
     0
  0
SCALE
  5
5D
102
{ACAD_REACTORS
330
47
102
}
330
47
100
AcDbScale
 70
     0
300
3/32" = 1'-0"
140
0.09375
141
12.0
290
     0
  0
SCALE
  5
5E
102
{ACAD_REACTORS
330
47
102
}
330
47
100
AcDbScale
 70
     0
300
1/8" = 1'-0"
140
0.125
141
12.0
290
     0
  0
SCALE
  5
5F
102
{ACAD_REACTORS
330
47
102
}
330
47
100
AcDbScale
 70
     0
300
3/16" = 1'-0"
140
0.1875
141
12.0
290
     0
  0
SCALE
  5
60
102
{ACAD_REACTORS
330
47
102
}
330
47
100
AcDbScale
 70
     0
300
1/4" = 1'-0"
140
0.25
141
12.0
290
     0
  0
SCALE
  5
61
102
{ACAD_REACTORS
330
47
102
}
330
47
100
AcDbScale
 70
     0
300
3/8" = 1'-0"
140
0.375
141
12.0
290
     0
  0
SCALE
  5
62
102
{ACAD_REACTORS
330
47
102
}
330
47
100
AcDbScale
 70
     0
300
1/2" = 1'-0"
140
0.5
141
12.0
290
     0
  0
SCALE
  5
63
102
{ACAD_REACTORS
330
47
102
}
330
47
100
AcDbScale
 70
     0
300
3/4" = 1'-0"
140
0.75
141
12.0
290
     0
  0
SCALE
  5
64
102
{ACAD_REACTORS
330
47
102
}
330
47
100
AcDbScale
 70
     0
300
1" = 1'-0"
140
1.0
141
12.0
290
     0
  0
SCALE
  5
65
102
{ACAD_REACTORS
330
47
102
}
330
47
100
AcDbScale
 70
     0
300
1-1/2" = 1'-0"
140
1.5
141
12.0
290
     0
  0
SCALE
  5
66
102
{ACAD_REACTORS
330
47
102
}
330
47
100
AcDbScale
 70
     0
300
3" = 1'-0"
140
3.0
141
12.0
290
     0
  0
SCALE
  5
67
102
{ACAD_REACTORS
330
47
102
}
330
47
100
AcDbScale
 70
     0
300
6" = 1'-0"
140
6.0
141
12.0
290
     0
  0
SCALE
  5
68
102
{ACAD_REACTORS
330
47
102
}
330
47
100
AcDbScale
 70
     0
300
1'-0" = 1'-0"
140
12.0
141
12.0
290
     0
  0
ENDSEC
  0
EOF
